» » »

Old Crow Medicine Show - Half Mile Down Guitar Lead Tabs

Artists:  A B C D E F G H I J K L M N O P Q R S T U V W X Y Z # 

Half Mile Down Guitar Lead Tabs

(ver. 1) Click to play this song!
Old Crow Medicine Show
 Rating:
4/5 (4 votes)


 Half Mile Down Guitar Lead lessons Tabs too difficult? Try these video lessons and learn fast
 
                -------------------------------------------------------------------------------
			     SONG NAME - Band Name
-------------------------------------------------------------------------------
this is as close as i could tell, it gets a little hard for me to tell willies exact picking towards the end of the solo, but he is probably the only one that could tell you were missing anything if you play it this way. if anyone has any tweaks please share.

strumming played over this is G C G D C G

Tuning: standard
                     
e|---------------------------------------------------------------------------|
B|--3-------0--1/3--3--0--3--3h5--3------------------------------------------|
G|-----0h2---------------------------4--2--0------0--2--0--0-----------------|
D|--------------------------------------------0h2--------------2--0----------|
A|---------------------------------------------------------------------------|
E|---------------------------------------------------------------------------|

e|---------------------------------------------------------------------------|
B|---------------------------------------------------------------------------|
G|--------------2--2--2--2h4--2----------------------------------------------|
D|-----------0-------------------4--3--0-------0--2--0-----------------------|
A|--0--2--3-------------------------------1/2-----------0--2--0--------------|
E|---------------------------------------------------------------3-----------|

************************************

| /   slide up
| \   slide down
| h   hammer-on
| p   pull-off
| ~   vibrato
| +   harmonic
| x   Mute note
| b   Bend
| pb  Pre-bend
| br  Bend release
| pbr Pre-bend release
| brb Bend release bend

************************************
            
Submit corrections



        Half Mile Down Guitar Lead lessons Hard to play? Try these video lessons and learn fast Half Mile Down Guitar Lead lessons
        
↑ Back to top | Tablatures and chords for acoustic guitar and electric guitar, ukulele, drums are parodies/interpretations of the original songs. You may use it for private study, scholarship, research or language learning purposes only