» » »

O.K. Go - Do What You Want Bass

Artists:  A B C D E F G H I J K L M N O P Q R S T U V W X Y Z # 

Do What You Want Bass

(ver. 1) Click to play this song!
O.K. Go
 Rating:
4.2/5 (5 votes)
                Intro:
G------------------------------------------|----|
D-----------------4-3-2-2-2----------------|-2~-|
A-2-2-2---------------------4-3-2-2-2-1-1--|----|
E-------4-3-2-2-2--------------------------|----|
Verse:
G-----------------------------------------|
D-----------------4-3-2-2-2---------------|
A-2-2-2---------------------4-3-2-2-2-1-1-|
E-------4-3-2-2-2-------------------------|
Pre Chorus:
G---------------------|
D-2~---4~---2~---4~---|
A---------------------|
E---------------------|

Chorus:
G-------------------------------------------|
D-----3-4-4-2-2-4-4-4-----1-2-2-------2-2-2-|
A-2-2---------------------------2-4-4-------|
E---------------------5-5-------------------|

Post Chorus:
G---------------------|
D----------------2~---|
A---------------------|
E-55-55-55-55-55------|
Intro x2
Verse x2
Pre Chorus x1
Chorus x2
Post Chorus x1

Bridge:
G------------------------------|
D-4-4-4-4-4-3-3-2-2-2-2-2-3-3--|
A------------------------------|  x2
E------------------------------|

G-----------------------------------------|
D-----------------4-3-2-2-2---------------|
A-2-2-2---------------------4-3-2-2-2-1-1-| x8
E-------4-3-2-2-2-------------------------|

Ending:
G---------------------|
D----------------2~---|
A---------------------|
E-55-55-55-55-55------|
            
Submit corrections

↑ Back to top | Tablatures and chords for acoustic guitar and electric guitar, ukulele, drums are parodies/interpretations of the original songs. You may use it for private study, scholarship, research or language learning purposes only