Home » O » Ogie Alcasid »

Ogie Alcasid - Kailangan Koy Ikaw Tabs

Artists:  A B C D E F G H I J K L M N O P Q R S T U V W X Y Z # 

Kailangan Koy Ikaw Tabs

(ver. 1) Click to play this song!
Ogie Alcasid
E|--3--3/5--3-----------0--0-----------------------0--------------|
B|-------------3--------------------------1--3--3-----1-----------|
G|-------------------0-----------------0--------------------2-----|
D|----------------2-----------------0--------------------2--------|
A|-------------3--------------3--2--------------0--------------0--|
E|----------------------------------------------------------------|
G         C         G/B         Am
Kailangan ko'y ikaw, Dito sa piling ko


E|--------0--1--------1--0--------------------------0--0--3--|
B|--1--3--------3-----------3--------3--1--3--------------0--|
G|-----------------2-----------------------------0--------0--|
D|-----------0--------------------0-----------2-----------0--|
A|-----------------------------2-----------3--------------2--|
E|--------------------------3-----------------------------3--|
           F       G           C       G
Kailangan kong madama, Ang pag-ibig mo


E|--3--1--0-----------0--0-----------------------0--------------------0--|
B|-----------3--------------------------1--3--3-----3--1--------------1--|
G|-----------------0-----------------0-----------------------2--------2--|
D|--------------2-----------------0-----------------------2--------2-----|
A|-----------3--------------3--2--------------0-----------------0--------|
E|-----------------------------------------------------------------------|
         C      G/B       Am
Sa bawat oras na, Di ka nakikita


E|-------0--1--1--------------------------0--0--------0--|
B|--1/3-----3-----3--------3--1--3--------------1-----1--|
G|----------2--------------------------0-----------0--3--|
D|----------0-----------0-----------2-----------------2--|
A|-------------------2-----------3--------------------3--|
E|----------------3--------------------------------------|
     Dm         G          C      C7
Para bang kay bigat,  Ng nadarama


E|-----1--3--3--5--5-------------------------5--3--3--------------0--|
B|--1-------------------------------0--1--3--------------------1-----|
G|----------------------------------------------------------2--------|
D|-------------------------------5-----------------------2-----------|
A|----------------------------5-----------------------0--------------|
E|-----------1--------1--1/3-----------------0-----------------------|

        F       G         Em      Am
O giliw nasan ka, Bakit lumisan ka


E|-------0--1--1--3--1--0-----------------------3--3--0--|
B|--1/3-----3--------------------3--1--3--------------1--|
G|----------2--------------------------------0--------3--|
D|----------0-----------------0-----------2-----------2--|
A|-------------------------2-----------3--------------3--|
E|----------------------3--------------------------------|
      Dm          G       C   C7
Paano nang, Puso kong nag-iisa


E|-----1--3--3--5--5----------------8--7--5--5--7--3--------------0--|
B|--1----------------------------------------------------------1-----|
G|----------------------------------------------------------2--------|
D|-------------------------------5-----------------------2-----------|
A|----------------------------5-----------------------0--------------|
E|-----------1--------1--1/3-----------------0-----------------------|
        F       G         Em      Am
O giliw nasan ka, Bakit lumisan ka


E|-------0--1--1--3--1--0--------------------|
B|--1/3-----3--------------------3--3--1--1--|
G|----------2--------------------------------|
D|----------0-----------------0--------------|
A|-------------------------2--------3--------|
E|----------------------3--------------------|
      Dm         G        C
Paano nang puso kong nag-iisa


E|--3--1--0-----------0--0-----------------------0--------------------0--|
B|-----------3--------------------------1--3--3-----3--1--------------1--|
G|-----------------0-----------------0-----------------------2--------2--|
D|--------------2-----------------0-----------------------2--------2-----|
A|-----------3--------------3--2--------------0-----------------0--------|
E|-----------------------------------------------------------------------|
           C        G/B        Am
Kailangan ko'y ikaw, Sa bawat sandali


E|-------0--1--1--1--------------------------3--3--------0--|
B|--1/3-----3--------3--------3--1--3--------------1-----1--|
G|----------2-----------------------------0-----------0--3--|
D|----------0--------------0-----------2-----------------2--|
A|----------------------2-----------3--------------------3--|
E|-------------------3--------------------------------------|
           F          G        C        C7
Kailangan ko'ng yakap mo, At iyong halik


E|-----1--3--3--5--5-----0--7--7--0--7--8--8--5--|
B|--1--------------------0--------------------7--|
G|-----------------------1--------------------5--|
D|-----------------------0--------------------7--|
A|-----------------------2-----------0--------5--|
E|-----------1--------1--0-----------------------|
          F        E7         Am     D7-pause
Kailangan ko'y ikaw, Dito sa buhay ko


E|--------0--1--1--3--1--0--------------0--0--------|
B|--1--3-----3--------------------3--3--------3--1--|
G|-----------2--------------------------------------|
D|-----------0-----------------0--------------------|
A|--------------------------2--------3--------------|
E|-----------------------3--------------------------|
       Dm       G        C
Paano nang puso kong nag-iisa


E|--3--1-----------------3-----------3--|
B|--------3-----------1-----------1--1--|
G|-----------------0-----------0-----0--|
D|--------------0-----------2--------2--|
A|-----------2-----------3-----------3--|
E|--------3-----------------------------|
           G     C
Kailangan ko'y ikaw            
Submit corrections

↑ Back to top | Tablatures and chords for acoustic guitar and electric guitar, ukulele, drums are parodies/interpretations of the original songs. You may use it for private study, scholarship, research or language learning purposes only