» » »

Obituary - Back On Top Tabs

Artists:  A B C D E F G H I J K L M N O P Q R S T U V W X Y Z # 

Back On Top Tabs

(ver. 1) Click to play this song!
Obituary
 Rating:
4.3/5 (22 votes)
                Riff 1.a
d|----------------------|--------------------------|--------------------------|------------------------|x4
a|----------------------|--------------------------|--------------------------|------------------------|
f|----------------------|--------------------------|--------------------------|------------------------|
C|----------------------|--------------------------|--------------------------|------------------------|
G|--2--------5-------6--|------2--------5-------6--|------2--------5-------6--|------3---3-3----5\6/3--|
D|--0----0-0-3---0-0-4--|--0-0-0----0-0-3---0-0-4--|--0-0-0----0-0-3---0-0-4--|--0-0-1---1-3--0-3\4/1--|


Riff 2.a
d|------------------------|----------------------|-------------------------------------------------|x1
a|------------------------|----------------------|-------------------------------------------------|
f|------------------------|----------------------|-------------------------------------------------|
C|-------------------5----|-------------------5--|-------------------5------------------------5----|
G|--2---7---6--------3-5--|--2---7---6--------3--|--2---7---6--------3-5---7---7-7---6--------3-5--|
D|--0---5-0-4---0-0----3--|--0---5-0-4---0-0-----|--0---5-0-4---0-0----3---5---5-5---4---0-0----3--|
pm              . .                      . .                    . .                      . .


Riff 1.a
d|----------------------|--------------------------|--------------------------|------------------------|x2
a|----------------------|--------------------------|--------------------------|------------------------|
f|----------------------|--------------------------|--------------------------|------------------------|
C|----------------------|--------------------------|--------------------------|------------------------|
G|--2--------5-------6--|------2--------5-------6--|------2--------5-------6--|------3---3-3----5\6/3--|
D|--0----0-0-3---0-0-4--|--0-0-0----0-0-3---0-0-4--|--0-0-0----0-0-3---0-0-4--|--0-0-1---1-3--0-3\4/1--|


Riff 2.b
d|------------------------|-----------------------|-------------------------------------------------|x1
a|------------------------|-----------------------|-------------------------------------------------|
f|------------------------|-----------------------|-------------------------------------------------|
C|-------------------5----|-------------------5b--|-------------------5------------------------5----|
G|--2---7---6--------3-5--|--2---7---6--------3b--|--2---7---6--------3-5---7---7-7---6--------3-5--|
D|--0---5-0-4---0-0----3--|--0---5-0-4---0-0------|--0---5-2-4---0-0----3---5---5-5---4---0-0----3--|
pm              . .                      . .                     . .                      . .


Riff 3.a
d|-------------------------------|-----------------------------|------------------------------|
a|-------------------------------|-----------------------------|------------------------------|
f|-------------------------------|-----------------------------|------------------------------|continue below
C|--------------------------5----|--------------------------5--|-------------------------5----|
G|----------7---6-----------3-5--|----------7---6-----------3--|---------7---6-----------3-5--|
D|--0-0-0-0-5-0-4---0-0-0-0---3--|--0-0-0-0-5-0-4---0-0-0-0----|-0-0-0-0-5-0-4---0-0-0-0---3--|
pm  . . . .   .     . . . .         . . . .   .     . . . .      . . . .   .     . . . . 

d|-------------------------|x1
a|-------------------------|
f|-------------------------|
C|-------------------------|
G|--7--7-7--6---7--7-7--6--|
D|--5--5-5--4---5--5-5--4--|


Riff 2.b
d|------------------------|-----------------------|-------------------------------------------------|x1
a|------------------------|-----------------------|-------------------------------------------------|
f|------------------------|-----------------------|-------------------------------------------------|
C|-------------------5----|-------------------5b--|-------------------5------------------------5----|
G|--2---7---6--------3-5--|--2---7---6--------3b--|--2---7---6--------3-5---7---7-7---6--------3-5--|
D|--0---5-0-4---0-0----3--|--0---5-0-4---0-0------|--0---5-0-4---0-0----3---5---5-5---4---0-0----3--|
pm              . .                      . .                     . .                      . .


Riff 1.a
d|----------------------|--------------------------|--------------------------|------------------------|x2
a|----------------------|--------------------------|--------------------------|------------------------|
f|----------------------|--------------------------|--------------------------|------------------------|
C|----------------------|--------------------------|--------------------------|------------------------|
G|--2--------5-------6--|------2--------5-------6--|------2--------5-------6--|------3---3-3----5\6/3--|
D|--0----0-0-3---0-0-4--|--0-0-0----0-0-3---0-0-4--|--0-0-0----0-0-3---0-0-4--|--0-0-1---1-3--0-3\4/1--|


Riff 3.b
d|-------------------------------|------------------------------|------------------------------------------|x1
a|-------------------------------|------------------------------|------------------------------------------|
f|-------------------------------|------------------------------|------------------------------------------|
C|--------------------------5----|--------------------------5b--|-------------------------5----------------|
G|----------7---6-----------3-5--|----------7---6-----------3b--|-------------------------3-5---7--7-7--6--|
D|--0-0-0-0-5-0-4---0-0-0-0---3--|--0-0-0-0-5-0-4---0-0-0-0-----|-0-0-0-0-5-0-4---0-0-0-0---3---5--5-5--4--|
pm  . . . .   .     . . . .         . . . .   .     . . . .       . . . .   .     . . . .


Riff 3.a
d|-------------------------------|------------------------------|------------------------------|
a|-------------------------------|------------------------------|------------------------------|
f|-------------------------------|------------------------------|------------------------------|continue below
C|--------------------------5----|--------------------------5b--|-------------------------5----|
G|----------7---6-----------3-5--|----------7---6-----------3b--|---------7---6-----------3-5--|
D|--0-0-0-0-5-0-4---0-0-0-0---3--|--0-0-0-0-5-0-4---0-0-0-0-----|-0-0-0-0-5-0-4---0-0-0-0---3--|
pm  . . . .   .     . . . .         . . . .   .     . . . .       . . . .   .     . . . . 

d|-------------------------|x1
a|-------------------------|
f|-------------------------|
C|-------------------------|
G|--7--7-7--6---7--7-7--6--|
D|--5--5-5--4---5--5-5--4--|


Riff 4
d|-------------------------|-------------|------------|--------|x1
a|-------------------------|-------------|------------|--------|
f|-------------------------|-------------|------------|--------|
C|-------------------------|-------------|------------|--------|
G|--2-----------3---3---2--|--3---3---2--|-----3---2--|--3--3--|
D|--0-----------1---1---0--|--1---1---0--|--0--1---0--|--3--3--|


Riff 2.b
d|------------------------|-----------------------|-------------------------------------------------|x1
a|------------------------|-----------------------|-------------------------------------------------|
f|------------------------|-----------------------|-------------------------------------------------|
C|-------------------5----|-------------------5---|-------------------5------------------------5----|
G|--2---7---6--------3-5--|--2---7---6--------3---|--2---7---6--------3-5---7---7-7---6--------3-5--|
D|--0---5-0-4---0-0----3--|--0---5-0-4---0-0------|--0---5-0-4---0-0----3---5---5-5---4---0-0----3--|
pm              . .                      . .                     . .                      . .


Riff 1.b
d|----------------------|--------------------------|--------------------------|--------------------|x1
a|----------------------|--------------------------|--------------------------|--------------------|
f|----------------------|--------------------------|--------------------------|--------------------|
C|----------------------|--------------------------|--------------------------|--------------------|
G|--2--------5-------6--|------2--------5-------6--|------2--------5-------6--|------7---7-7---8x--|
D|--0----0-0-3---0-0-4--|--0-0-0----0-0-3---0-0-4--|--0-0-0----0-0-3---0-0-4--|--0-0-5---5-5---6x--|


Riff 5.a
d|-------------------------------------------------|----------------------------------------------|x2
a|-------------------------------------------------|----------------------------------------------|
f|-------------------------------------------------|----------------------------------------------|
C|-------------------------------------------------|----------------------------------------------|
G|--2-------2--------2------2-------------3-----3--|--2-------2--------2-------2-----------3---3--|
D|--0---0-0-0----0-0-0--0-0-0---0-0-0-0-0-1---0-1--|--0---0-0-0----0-0-0---0-0-0---0-0-0-0-3---3--|
pm      . .      . .    . .     . . . . .     .           . .      . .     . .     . . . .


Riff 5.b
d|--------------------------------------------|--------------------------------------------|TIL END OF SONG
a|--------------------------------------------|--------------------------------------------|
f|--------------------------------------------|--------------------------------------------|
C|--------------------------------------------|--------------------------------------------|
G|--2-------2--------2------2-----------3--3--|--2-------2--------2------2-----------3--3--|
D|--0---0-0-0----0-0-0--0-0-0---0-0-0-0-1--1--|--0---0-0-0----0-0-0--0-0-0---0-0-0-0-3--3--|
pm      . .      . .    . .     . . . .              . .      . .    . .     . . . .            
Submit corrections

↑ Back to top | Tablatures and chords for acoustic guitar and electric guitar, ukulele, drums are parodies/interpretations of the original songs. You may use it for private study, scholarship, research or language learning purposes only