» » »

O.A.R. - This Town Bass

Artists:  A B C D E F G H I J K L M N O P Q R S T U V W X Y Z # 

This Town Bass

(ver. 1) Click to play this song!
O.A.R.
 Rating:
4/5 (4 votes)


 This Town lessons Tabs too difficult? Try these video lessons and learn fast
 
                -------------------------------------------------------------------------------
			     This Town – O.A.R.
-------------------------------------------------------------------------------

Tuning: Standard (EADG)


INTRO
(First note is with drum)
G|------------------|   |---------------------------------------|
D|------------------|   |---------------------------------------|
A|---(2~)-----------|x1 |-----------2-2h4-2---------------------|x2
E|-0~-----(4~)-(2~)-|   |-0--00-2-4---------2h4-4h6p4-0p2-2h4p2-|

VERSE 1
G|---------------------------------------|
D|---------------------------------------|
A|-----------2-2h4-2---------------------|x4
E|-0--00-2-4---------2h4-4h6p4-0p2-2h4p2-|

G|---------------------------------------|
D|---------------------------------------|
A|---------------------------------------|x1
E|-0~-0-2h4-2~-2h4-6-4~-4h6-7-6~-6-6h7-9-|

CHORUS 1
G|----------------------------------------|
D|----------------------------------------|
A|-2-2-2-0h2-4-4-4-2h4--------------------|x2
E|---------------------0-0-0-0-0h2-2-2-2--|

G|----------------------------------|
D|----------------------------------|
A|-----4-6-----2-4-----0-2-----2-4--|
E|-4-4-----2-2-----0-0-----2-2------|

INTERLUDE
G|---------------------------------------|
D|---------------------------------------|
A|-----------2-2h4-2---------------------|x2
E|-0--00-2-4---------2h4-4h6p4-0p2-2h4p2-|

VERSE 2
G|---------------------------------------|
D|---------------------------------------|
A|-----------2-2h4-2---------------------|x4
E|-0--00-2-4---------2h4-4h6p4-0p2-2h4p2-|

G|---------------------------------------|
D|---------------------------------------|
A|---------------------------------------|x1
E|-0~-0-2h4-2~-2h4-6-4~-4h6-7-6~-6-6h7-9-|

CHORUS 2
G|----------------------------------------|
D|----------------------------------------|
A|-2-2-2-0h2-4-4-4-2h4--------------------|x2
E|---------------------0-0-0-0-0h2-2-2-2--|

G|----------------------------------|
D|----------------------------------|
A|-----4-6-----2-4-----0-2-----2-4--|x2
E|-4-4-----2-2-----0-0-----2-2------|

BRIDGE
G|---------------------------------------|
D|---------------------------------------|
A|-----------2-2h4-2---------------------|x2
E|-0--00-2-4---------2h4-4h6p4-0p2-2h4p2-|

G|-------------------------------------------------------------------------------|
D|-------------------------------------------------------------------------------|
A|----------22222222-44444444----------------------------------------------------|x1
E|-00000000-------------------22222222-00000000-44444444-222222222222 12-12-12-12|

OUTRO
G|----------------------------------------------|
D|----------------------------------------------|
A|-2~-0h2-4~-2h4---------2~-0h2-4~-2h4----------|
E|---------------0~-0-2~---------------0~-0-2~--|

G|----------------------------------|
D|----------------------------------|
A|-----4-6-----2-4-----0-2-----2-4--|x2
E|-4-4-----2-2-----0-0-----2-2------|

G|---------------------------------------|
D|---------------------------------------|
A|-----------2-2h4-2---------------------|x4
E|-0--00-2-4---------2h4-4h6p4-0p2-2h4p2-|

END

G|--------|
D|--------|
A|--------|
E|-0~~~~~-|

| /  slide up
| \  slide down
| h  hammer-on
| p  pull-off
| ~  vibrato
| +  harmonic
| x  Mute note
|(_) Ghost Note
===============================================================================

It’s pretty obvious where to mute the strings and stuff so that notes don’t just ring on.
Just play around with this until you have it how you like it. It’s damn close, if not perfect =]

~Hobo11 (Forrest)
            
Submit corrections



        This Town lessons Hard to play? Try these video lessons and learn fast This Town lessons
        
↑ Back to top | Tablatures and chords for acoustic guitar and electric guitar, ukulele, drums are parodies/interpretations of the original songs. You may use it for private study, scholarship, research or language learning purposes only