» » »

Ladanday Bass - O.A.R.

Artists:  A B C D E F G H I J K L M N O P Q R S T U V W X Y Z # 

Ladanday Bass

(ver. 1) Click to play this song!
O.A.R. Tabs
4/5 (4 votes)
    Ladanday lessons Tabs too difficult? Try these video lessons and learn fast
                this is my first tab, so go easy on me...


G: -------4---------------------7------------------------------|
D: -----4---4------555535-----7---7-------75457----------------|
A: ---2---------------------5----------------------------------|
E: -------------3---------------------5------------------------|

Repeat until the verse starts...


G: ----------------5-7------------------------------------|
D: --------5----------------------------------------------|
A: --5-5-57---------------------------4-------------------|
E: -----------55-5-------33333--555-7---------------------|


G: ------------------------------------------------|
D: ------------------------------------------------|
A: --22222--------55555----------------------------|
E: --------33333----------555555-------------------|

repeat until verse comes back.

benj gershman tools around a lot, so this is the basic framework to the song, but 
it isn't perfect.
Submit corrections

↑ Back to top | O.A.R. Bass for Ladanday. Lyrics for acoustic guitar and electric guitar. Tablatures and chords are parodies/interpretations of the original songs. You may use it for private study, scholarship, research or language learning purposes only