Home » N » Nyoy Volante »

Nyoy Volante - Umagang Kay Ganda Tabs

Artists:  A B C D E F G H I J K L M N O P Q R S T U V W X Y Z # 

Umagang Kay Ganda Tabs

(ver. 1) Click to play this song!
Nyoy Volante
solo:
e-------10-------------10-------10--8--7--8--7------10s12----10--|
B-----8----8---------8---7---------------------8----------12-----|
G---9--------------9-----------------------------7---------------|
D----------------------------------------------------------------|
A----------------------------------------------------------------|
E----------------------------------------------------------------|


e-------10-------------10----------------------------------------|
B-----8----8---------8---7------12-12-10--8--8s12----------------|
G---9--------------9---------------------------------------------|
D----------------------------------------------------------------|
A----------------------------------------------------------------|
E----------------------------------------------------------------|

yun lang...
not sure bout dis... gudluck...
paki rate nalang...
*pio*
            
Submit corrections

↑ Back to top | Tablatures and chords for acoustic guitar and electric guitar, ukulele, drums are parodies/interpretations of the original songs. You may use it for private study, scholarship, research or language learning purposes only