Home » N » No Use For A Name »

No Use For A Name - Invincible Tabs

Artists:  A B C D E F G H I J K L M N O P Q R S T U V W X Y Z # 

Invincible Tabs

(ver. 1) Click to play this song!
No Use For A Name
 Rating:
4/5 (4 votes)
                INTRO 1 (Only Guitar 1)
e|-------------------------------------------------------------------------
B|-----------*-------*-----------------------------------------------------
G|---*---5---5---7---7-------*-------*-------------------------------------
D|-2-2---5x3-5x6-5x3-5x6-5---5---4---4-------------------------------------x2
A|-2-2x6-3---3---5---5---5x3-5x2-4x3-4x2-----------------------------------
E|-0-0-------------------3---3---2---2-------------------------------------

INTRO 2 (Guitar 1)
e|---------------------------------------------------------------
B|---------------------------------------------------------------
G|-------5-------7-----------------------------------------------
D|-2-----5x8-----5x8----5------4---------------------------------x2             
A|-2x8---3-------5------5x8----4x8-------------------------------
E|-0--------------------3------2---------------------------------

INTRO 2 (Guitar 2)
e|--------------------------------
B|--------------------------------
G|12-----9-----11-----16----14----
D|-x-x10-x-x10--x-x10--x-x4--x-x4- play this twice,but the second 
A|10-----7------9-----14----12---- time close the intro this way:
E|-------------------------------

e|----------------------
B|----------------------
G|16----14----16-14-12--
D|-x-x4--x-x2--x--x--x--
A|14----12----14-12-10--
E|----------------------

VERSE 1 (Only Guitar 1) You can use two guitars but play the same part.
e|----------------------------------------------------------------------
B|----------------------------------------------------------------------
G|------------5----------7----------------------------------------------
D|-2----------5-*******--7-*******--5------4----------------------------
A|-2-*******--3----------5----------5-***--4-***------------------------
E|-0--------------------------------3------2----------------------------


VERSE 2 (Guitar 1)
It starts with "How can you say that I'm a fool..."
e|--------------------------------------------------------------------------
B|--------------------------------------------------------------------------
G|-5--------------7---------------------------------------------------------
D|-5-x8-7----5----7-x8-5----4-----------------------------------------------
A|-3----7-x4-5-x4-5----5-x4-4-x4--------------------------------------------
E|------5----3---------3----2-----------------------------------------------

e|--------------------------------------------------------------------------
B|--------------------------------------------------------------------------
G|-5---------7--------------------------------------------------------------
D|-5-x8-7----7-x8-5----4----------------------------------------------------
A|-3----7-x8-5----5-x4-4-x4-------------------------------------------------
E|------5---------3----2----------------------------------------------------

VERSE 2 (Guitar 2) 
e|-----                           e|------
B|----- guitar 2 plays this       B|------
G|-11-- over the chord--------->  G|--7---
D|--x--                           D|--7---
A|--9--                           A|--5---
E|-----                           E|------

e|----------------------
B|----------------------
G|16----14----16-14-12--
D|-x-x4--x-x2--x--x--x-- and then play this over the two chords after.
A|14----12----14-12-10--
E|----------------------

CHORUS (Guitar 1)
e|--------------------------------------------------------------------------
B|--------------------------------------------------------------------------
G|-5----7------------------------------------------------------------------
D|-5-x8-7-x8-9----5----4----------------------------------------------------
A|-3----5----9-x8-5-x4-4-x4-------------------------------------------------
E|-----------7----3----2----------------------------------------------------

e|--------------------------------------------------------------------------
B|--------------------------------------------------------------------------
G|-5-----------------------------------------------------------------------
D|-5-x8-7----9----5----4----------------------------------------------------
A|-3----7-x8-9-x8-5-x4-4-x4-------------------------------------------------
E|------5----7----3----2----------------------------------------------------

CHORUS (Guitar 2
e|---------------------------------
B|---------------------------------
G|-9----11----14----16----14-------
D|-x-x8--x-x8--x-x8--x-x4--x-x4----
A|-7-----9----12----14----12-------
E|---------------------------------

e|----------------------------------
B|----------------------------------
G|-12----9----11----14----16--------
D|--x-x8-x-x8--x-x8--x-x4--x-x4-----
A|-10----7-----9----12----14--------
E|----------------------------------

Solo:

  e|------------------------------------------------------------------------------|
  B|------------------------------------------------------------------------------|
  G|------------------------------------------------------------------------------|
  D|----------5---5-4-------------------------------------------------------------|
  A|---/7-7-7---7-----5-2vv--0-------2vv-2-2h3-2-0-2------------------------------|
  E|---------------------------3-2-3----------------------------------------------|

  e|------------------------------------------------------------------------------|
  B|---------------------------------0~~-3p0-5p0-3h5p3p0-3p0----------------------|
  G|--------------------0h2-0----0h2-------------------------2p0-2p0--------------|
  D|-------0h2-0----0h2-------h2-------------------------------------2p0-2p0vvb---|
  A|---0h2-------h2---------------------------------------------------------------|
  E|------------------------------------------------------------------------------|

  e|---7h10p7~~b-7----------------------------------------------------------------|
  B|---------------h10-p8-10/12-10\8-10p8-----------------------------------------|
  G|--------------------------------------9p7h9-----------------------------------|
  D|------------------------------------------------------------------------------|
  A|------------------------------------------------------------------------------|
  E|------------------------------------------------------------------------------|

In the outro you should play INTRO 2 twice,but the second time play it like this:

e|-----------------------------------
B|-----------------------------------
G|12-----11-----16----14----16-14-12-
D|-x-x20--x-x10--x-x4--x-x2--x--x--x- 
A|10------9-----14----12----14-12-10-
E|-----------------------------------
            
Submit corrections

↑ Back to top | Tablatures and chords for acoustic guitar and electric guitar, ukulele, drums are parodies/interpretations of the original songs. You may use it for private study, scholarship, research or language learning purposes only