Home » N » No Use For A Name »

No Use For A Name - Felix Tabs

Artists:  A B C D E F G H I J K L M N O P Q R S T U V W X Y Z # 

Felix Tabs

(ver. 1) Click to play this song!
No Use For A Name
 Rating:
4.3/5 (25 votes)
                [Intro]
e|---------|--x8-|
B|-L-------|-----|
G|-9--9/12-|--12-|
D|-9--9/12-|--12-|
A|-7--7/10-|--10-|
E|---------|-----| 
 
[Riff 1] x2
e|-------------------------------------------------|--x8-|
B|---M-M------------M--M-------------M--M----------|-----|
G|-9-9-9---------10-10-10---------11-11-11---------|--12-|
D|-9-9-9-7--7-7--10-10-10-7--7-7--11-11-11-7--7-7--|--12-|
A|-7-7-7-7--7-7--8--8--8--7--7-7--9--9--9--7--7-7--|--10-|
E|-------5--5-5-----------5--5-5-----------5--5-5--|-----| 
 
[Riff 2] x2
e|---x8--|---x8--|---x8--|-x8-|
B|-------|-------|-------|----|
G|-------|-------|-------|-12-|
D|--p-h--|--p-h--|--p-h--|-12-|
A|-7-0-7-|-8-0-8-|-9-0-9-|-10-|
E|-------|-------|-------|----| 
 
[Riff 1 without palm mute]
e|------------------------------------------------|--x8-|
B|------------------------------------------------|-----|
G|-9-9-9---------10-10-10---------11-11-11--------|--12-|
D|-9-9-9-7--7-7--10-10-10-7--7-7--11-11-11-7--7-7-|--12-|
A|-7-7-7-7--7-7--8--8--8--7--7-7--9--9--9--7--7-7-|--10-|
E|-------5--5-5-----------5--5-5-----------5--5-5-|-----| 
 
e|------------------------------------------------|-x4-|-x4-|
B|------------------------------------------------|----|----|
G|-9-9-9---------10-10-10---------11-11-11--------|-12-|-13-|
D|-9-9-9-7--7-7--10-10-10-7--7-7--11-11-11-7--7-7-|-12-|-13-|
A|-7-7-7-7--7-7--8--8--8--7--7-7--9--9--9--7--7-7-|-10-|-11-|
E|-------5--5-5-----------5--5-5-----------5--5-5-|----|----| 
 
[End of intro]
e|-------------------------|
B|-----------------------L-|
G|---.-------L-------8-7-5-|
D|-5-7-------7-------8-7-5-|
A|-5-7-------7-------6-5-3-|
E|-3-5-------5-------------|
 
[Verse] x2
e|--------x3--------|-------|
B|------------------|-----L-|
G|-2-2-----3-3--5-5-|-8-7-5-|
D|-2-2--p--3-3--5-5-|-8-7-5-|
A|-0-0-1-0-1-1--3-3-|-6-5-3-|
E|------------------|-------|
 
[Chorus] x3
e|-----------------|
B|-----------------|
G|-4-4-7-7---------|
D|-4-4-7-7-5-5-7-7-|
A|-2-2-5-5-5-5-7-7-|
E|---------3-3-5-5-|
 
[End of chorus]
e|-------------------------------------------|
B|-----------------------------------------.-|
G|-4-4-7-7-M-M-M-M-M-M-M-M-M-M-M-M-M-M-M-M-4-|
D|-4-4-7-7-5-5-5-5-5-5-5-5-7-7-7-7-7-7-7-7-4-|
A|-2-2-5-5-5-5-5-5-5-5-5-5-7-7-7-7-7-7-7-7-2-|
E|---------3-3-3-3-3-3-3-3-5-5-5-5-5-5-5-5---|
 
[Post chorus] x8
e|---------------------|
B|---------------------|
G|---------------------|
D|-2-x-x-x-x-3-x-x-5-6-|
A|-2-x-x-x-x-3-x-x-5-6-|
E|-0-x-x-x-x-1-x-x-3-4-|
 
[End of post chorus]
e|---------------|
B|-------------L-|
G|-L-------8-7-5-|
D|-7-------8-7-5-|
A|-7-------6-5-3-|
E|-5-------------|
 
[Verse] x2
e|--------x3--------|-------|
B|------------------|-----L-|
G|-2-2-----3-3--5-5-|-8-7-5-|
D|-2-2--p--3-3--5-5-|-8-7-5-|
A|-0-0-1-0-1-1--3-3-|-6-5-3-|
E|------------------|-------|
 
[Chorus] x3
e|-----------------|
B|-----------------|
G|-4-4-7-7---------|
D|-4-4-7-7-5-5-7-7-|
A|-2-2-5-5-5-5-7-7-|
E|---------3-3-5-5-|
 
[End of chorus]
e|-------------------------------------------|
B|-----------------------------------------.-|
G|-4-4-7-7-M-M-M-M-M-M-M-M-M-M-M-M-M-M-M-M-4-|
D|-4-4-7-7-5-5-5-5-5-5-5-5-7-7-7-7-7-7-7-7-4-|
A|-2-2-5-5-5-5-5-5-5-5-5-5-7-7-7-7-7-7-7-7-2-|
E|---------3-3-3-3-3-3-3-3-5-5-5-5-5-5-5-5---|
 
[Post chorus] x4
e|---------------------|
B|---------------------|
G|---------------------|
D|-2-x-x-x-x-3-x-x-5-6-|
A|-2-x-x-x-x-3-x-x-5-6-|
E|-0-x-x-x-x-1-x-x-3-4-|
 
e|---|
B|---|
G|-.-|
D|-2-|
A|-2-|
E|-0-|
            
Submit corrections

↑ Back to top | Tablatures and chords for acoustic guitar and electric guitar, ukulele, drums are parodies/interpretations of the original songs. You may use it for private study, scholarship, research or language learning purposes only