» » »

Noel Gallaghers High Flying Birds - Stranded On The Wrong Beach Bass

Artists:  A B C D E F G H I J K L M N O P Q R S T U V W X Y Z # 

Stranded On The Wrong Beach Bass

(ver. 1) Click to play this song!
Noel Gallaghers High Flying Birds
 Rating:
4/5 (4 votes)


 Stranded On The Wrong Beach lessons Tabs too difficult? Try these video lessons and learn fast
 
                -------------------------------------------------------------------------------
        THE WRONG BEACH - Noel Gallagher's High Flying Birds
-------------------------------------------------------------------------------

Live Version


Tuning: EADG

Main Riff

G|------------------------------------------------------------------------------------------------|
D|------------------------------------------------------------------------------------------------|
A|---------------------------------------------x-6-6-6-6--x-8-8-8-6-8/10-10-10-8-10-6---6-5---5---|
E|-x3-3-3-3--x-5-5-5-5--x-6-6-6-6--x-8-8-8-8------------------------------------------6-----6---6-|

G|------------------------------------------------------------------------------------------------|
D|------------------------------------------------------------------------------------------------|
A|---------------------------------------------x-6-6-6-6--x-8-8-8-8--x-13-13-13-13--x-5-5-5-5-----|
E|-x3-3-3-3--x-5-5-5-5--x-6-6-6-6--x-8-8-8-8------------------------------------------------------|


Chorus

G|---------------------------------|
D|---------------------------------|
A|-x-4-4-x-5-5-x-10-10-x-8-8-------| (x5)
E|---------------------------------|

G|-----------------------------------------------------------------------|
D|-----------------------------------------------------------------------|
A|---------------x-10-10-10-10-10-10-10-10-10-10-10-8-10-6---6-5---5-----| 
E|-x-8-8-x-10-10-------------------------------------------6-----6---6---|


Last Part of Main riff

G|------------------------------------------------------------------------------------------------|
D|------------------------------------------------------------------------------------------------|
A|---------------------------------------------x-6-6-6-6--x-8-8-8-8--x-13-13-13-13--x-5-5-5-5-----|
E|-x3-3-3-3--x-5-5-5-5--x-6-6-6-6--x-8-8-8-8------------------------------------------------------|


- Repeat Chorus -


Solo

G|-----------------------------------------------------------------------------------------|
D|-----------------------------------------------------------------------------------------|
A|-10-10-10-10/5-5-5-5/13-13-13-13/--------6-6-6-6/8-8-8-6-8-10-10-10-8-10-6---6-5---5-----|
E|---------------------------------8-8-8-8-----------------------------------6-----6---6---|

G|-----------------------------------------------------------------------------|
D|-----------------------------------------------------------------------------|
A|-10-10-10-10/5-5-5-5/13-13-13-13/--------6-6-6-6/8-8-8-8/13-13-13-13/5-5-5-5-|
E|---------------------------------8-8-8-8-------------------------------------|


- Repeat Chorus - 

- Repeat Main Riff - (slowing down)




| /  slide 
| x  Mute note
===============================================================================
            
Submit corrections



        Stranded On The Wrong Beach lessons Hard to play? Try these video lessons and learn fast Stranded On The Wrong Beach lessons
        
↑ Back to top | Tablatures and chords for acoustic guitar and electric guitar, ukulele, drums are parodies/interpretations of the original songs. You may use it for private study, scholarship, research or language learning purposes only