» » »

Noel Gallaghers High Flying Birds - Aka What A Life Bass

Artists:  A B C D E F G H I J K L M N O P Q R S T U V W X Y Z # 

Aka What A Life Bass

(ver. 1) Click to play this song!
Noel Gallaghers High Flying Birds
 Rating:
4/5 (5 votes)
                Intro/verse:
|-----------------------|
|-----------------------|
|-4-2h4-4-4-4-4-4-4-2h4-|
|-----------------------| X1

|-------------------|
|-------------------|
|-4-4-4-4-4-4-4-2h4-|
|-------------------|

Chorus:
|-------------------------------------------------------------------|
|-------------------------------------------------------------------|
|-0-0-0-0-0-0-0-0-----------------4-4-4-4-4-4-4-2h4-4-4-4-4-4-4-4-4-|
|-----------------2-2-2-2-2-2-2-2-----------------------------------|

Solo:
|-----------------------------------------------------------------|
|-----------------------------------------------------------------|
|-4-4-4-4-4-4-4-4-0-0-0-0-0-0-0-0-----------------0-0-0-0-0-0-0-0-|
|---------------------------------2-2-2-2-2-2-2-2-----------------|

Outro:
|-------------------|
|-------------------|
|-4-4-4-4-4-4-4-2h4-|
|-------------------|
            
Submit corrections

↑ Back to top | Tablatures and chords for acoustic guitar and electric guitar, ukulele, drums are parodies/interpretations of the original songs. You may use it for private study, scholarship, research or language learning purposes only