» » »

No Doubt - Staring Problem Tabs

Artists:  A B C D E F G H I J K L M N O P Q R S T U V W X Y Z # 

Staring Problem Tabs

(ver. 1) Click to play this song!
No Doubt
 Rating:
4/5 (4 votes)

 Staring Problem lessons Tabs too difficult? Try these video lessons and learn fast
 
                

Intro Part 1- 2x 
e|---------------------------------------------------------------------------| 
B|---------------------------------------------------------------------------| 
G|---------------------------------------------------------------------------| 
D|---------------------------------------------------------------------------| 
A|------7-7--0-0--3-3-----7-5-3----------------------------------------------| 
E|-0-0-----------------------------------------------------------------------| 

Intro Part 2 
e|---------------------------------------------------------------------------| 
B|---------------------------------------------------------------------------| 
G|---------------------------------------------------------------------------| 
D|---------------------------------------------------------------------------| 
A|------7-7--0-0--3-3--repeat------------------------------------------------| 
E|--0-0----------------------------------------------------------------------| 

Verse 
e|---------------------------------------------------------------------------| 
B|---------------------------------------------------------------------------| 
G|---------------------------------------------------------------------------| 
D|---------------------------------------------------------------------------| 
A|------7-7--0-0--3-3--------------------------------------------------------| 
E|--0-0----------------------------------------------------------------------| 
pm............... 

part after first verse and part that leads to chorus 
e|---------------------------------------------------------------------------| 
B|---------------------------------------------------------------------------| 
G|--7---7---7---7------------------------------------------------------------| 
D|----6---6---6---6----------------------------------------------------------| 
A|---------------------------------------------------------------------------| 
E|---------------------------------------------------------------------------| 

Chorus 
e|-----------------------------------------------------------------------------| 
B|-----------------------------------------------------------------------------| 
G|-----------------------------------------------------------------------------| 
D|----------------10-10-10-x-10-10-10-x-12-12-12-x-12-12-12-10-10-10-x-10-10-10| 
A|--9-9-9-x-9-9-9--8--8--8-x--8--8--8-x-10-10-10-x-10-10-10--8--8--8-x--8--8--8| 
E|--7-7-7-x-7-7-7--------------------------------------------------------------| 
            
Submit corrections


        Staring Problem lessons Hard to play? Try these video lessons and learn fast Staring Problem lessons
        
↑ Back to top | Tablatures and chords for acoustic guitar and electric guitar, ukulele, drums are parodies/interpretations of the original songs. You may use it for private study, scholarship, research or language learning purposes only