» » »

No Doubt - Ex-Gilfriend! Tabs

Artists:  A B C D E F G H I J K L M N O P Q R S T U V W X Y Z # 

Ex-Gilfriend! Tabs

(ver. 1) Click to play this song!
No Doubt
 Rating:
4/5 (4 votes)

 Ex-Gilfriend! lessons Tabs too difficult? Try these video lessons and learn fast
 
                EX-GIRLFRIEND - No Doubt 


Intro- (clean) 2x 
e|--8--7--5--3--2------------------------------------------------------------| 
B|-10--8--7--5--4--5--4--1---------------------------------------------------| 
G|-----------------5--4--2---------------------------------------------------| 
D|---------------------------------------------------------------------------| 
A|---------------------------------------------------------------------------| 
E|---------------------------------------------------------------------------| 

Intro continued- Distorted 
e|---------------------------------------------------------------------------| 
B|---------------------------------------------------------------------------| 
G|---------------------------------------------------------------------------| 
D|---------4-4-4-4-5-5-5-5-5-5-5-5---------5-5-5-5-4-4-4-4-------------------| 
A|-2-2-2-2-2-2-2-2-3-3-3-3-3-3-3-3-4-4-4-4-3-3-3-3-2-2-2-2-------------------| 
E|-0-0-0-0-------------------------2-2-2-2-----------------------------------| 
pm..................................................... 

Verse 
e|-7-----8----5----2--3-5---7----8---8--7--5--3--2---------------------------| 
B|-8----10----7----4--5-7---8---10--10--8--7--5--4--5--4--1------------------| 
G|--------------------------------------------------5--4--2------------------| 
D|---------------------------------------------------------------------------| 
A|---------------------------------------------------------------------------| 
E|---------------------------------------------------------------------------| 

Fill 1- I think this is right 
e|---------------------------------------------------------------------------| 
B|--5---5---4---4------------------------------------------------------------| 
G|----4---4---4---4----------------------------------------------------------| 
D|---------------------------------------------------------------------------| 
A|---------------------------------------------------------------------------| 
E|---------------------------------------------------------------------------| 

Fill 2 
e|--0-0------|--0-0--0-0-----------| 
B|----1-4-4--|----1----1--4-4-4-4--| 
G|--------4--|------------4---4----| 
D|-----------|---------------------| 
A|-----------|---------------------| 
E|-----------|---------------------| 

Fast Part- Figure out how many times 
e|-0--------------------0------------------------------------------------------| 
B|-0--------------------0------------------------------------------------------| 
G|-0--------------------0------------------------------------------------------| 
D|-2---------------/----14-----------------------------------------------------| 
A|-2---------------/----14-----------------------------------------------------| 
E|-0--------------------0------------------------------------------------------| 
            
Submit corrections


        Ex-Gilfriend! lessons Hard to play? Try these video lessons and learn fast Ex-Gilfriend! lessons
        
↑ Back to top | Tablatures and chords for acoustic guitar and electric guitar, ukulele, drums are parodies/interpretations of the original songs. You may use it for private study, scholarship, research or language learning purposes only