» » »

Nobuo Uematsu - Terras Tabs

Artists:  A B C D E F G H I J K L M N O P Q R S T U V W X Y Z # 

Terras Tabs

(ver. 1) Click to play this song!
Nobuo Uematsu
 Rating:
4/5 (4 votes)

 Terras lessons Tabs too difficult? Try these video lessons and learn fast
 
                (Theme)
This sounds about right... I was reading some other tabs for it but they all sounded too high. For a little variation, try picking the first fret on the G string 4x fast while playing the first part. Peace out. 

e|------0------0------0------0------0------0--------------------------------------|
B|----2------2------2------2------2------2----------------------------------------|
G|--1------1------1------1------1------1------------------------------------------|
D|--------------------------------------------------------------------------------|
A|--------------------------------------------------------------------------------|
E|--------------------------------------------------------------------------------|

e|--------------------------------------------------------------------------------|
B|-------8------------------8---------8-------8-11-8------------------------------|
G|-5-7-8---8-7-5-7----5-7-8---8-7-5-7----8-10--------10-8-10----8-7-5--8-7-5------|
D|-----------------5-----------------------------------------8--------------------| 
A|--------------------------------------------------------------------------------|
E|--------------------------------------------------------------------------------|

e|--------------------------------------------------------------------------------|
B|-------8------------------8---------8-------8-11-8------------------------------|
G|-5-7-8---8-7-5-7----5-7-8---8-7-5-7----8-10--------10-8-10----8-7-5--8-7-5------|
D|-----------------5-----------------------------------------8--------------------|
A|--------------------------------------------------------------------------------|
E|--------------------------------------------------------------------------------|

e|--------------------------------------------------------------------------------|
B|------8-11-8-----------------8-11-8---------11--------8-------------------------|
G|-8-10--------10-8-10----8-10--------10-8-10-----5-7-8---8-7-5-7----8-7-5--8-7-5-|
D|---------------------8------------------------------------------5---------------|
A|--------------------------------------------------------------------------------|
E|--------------------------------------------------------------------------------|
            
Submit corrections


        Terras lessons Hard to play? Try these video lessons and learn fast Terras lessons
        
↑ Back to top | Tablatures and chords for acoustic guitar and electric guitar, ukulele, drums are parodies/interpretations of the original songs. You may use it for private study, scholarship, research or language learning purposes only