Home » N » Noah Gundersen »

Noah Gundersen - Caroline Tabs

Artists:  A B C D E F G H I J K L M N O P Q R S T U V W X Y Z # 

Caroline Tabs

(ver. 1) Click to play this song!
Noah Gundersen
D|------------------------------------------------------|
A|--------5-------------------------------5-------5s9---|
F#|-3s5-------5-----3b------0-------3h5-------5---------|
D|------------------------------------------------------|
A|------------------------------------------------------|
D|--0---------------0---------------0---------------0---|

D|------------------------------------------------------|
A|--------5---------------------------------------------|
F#|-3h5-------5-----3b-----p0---------------------------|
D|----------------------------------2h4p2p0---------0---|
A|--------------------------------------------2s5-------|
D|--0---------------0---------------0---------0---------|            
Submit corrections

↑ Back to top | Tablatures and chords for acoustic guitar and electric guitar, ukulele, drums are parodies/interpretations of the original songs. You may use it for private study, scholarship, research or language learning purposes only