» » »

Nirvana - The Money Will Roll Right In Tabs

Artists:  A B C D E F G H I J K L M N O P Q R S T U V W X Y Z # 

The Money Will Roll Right In Tabs

(ver. 1) Click to play this song!
Nirvana
 Rating:
4/5 (4 votes)
                NIRVANA - the money will roll right in

INTRO / VERSE
e|-----------------|
B|-----------------|
G|-----------------|
D|-----------------|
A|-------------^---|
E|-0-0-0-0-0-2-2-3-|

repeat tons of times

CHORUS
e|--------------------|
B|--------------------|
G|--------------------|
D|-4-4-4-4--5-5--4--3-|
A|-4-4-4-4--5-5--4--3-|
E|-2-2-2-2--3-3--2--1-|

play each chord for longer than that though


SOLO is just feedback

 X X  
\/\/\
            
Submit corrections

↑ Back to top | Tablatures and chords for acoustic guitar and electric guitar, ukulele, drums are parodies/interpretations of the original songs. You may use it for private study, scholarship, research or language learning purposes only