» » »

Nirvana - Anorexorcist Tabs

Artists:  A B C D E F G H I J K L M N O P Q R S T U V W X Y Z # 

Anorexorcist Tabs

(ver. 1) Click to play this song!
Nirvana
 Rating:
4.4/5 (7 votes)

 Anorexorcist lessons Tabs too difficult? Try these video lessons and learn fast
 
                Intro] (0:12 - 0:25)
     F5  E5 D#5  F5  E5 D#5  F5  E5    D#5  F5  E5 D#5  F5  E5 D#5  D5
e|----------------------------------|----------------------------------|
B|----------------------------------|----------------------------------|
G|----------------------------------|----------------------------------|
D|----3---2---1---3---2---1---3---2-|----1---3---2---1---3---2---1---0-|
A|----3---2---1---3---2---1---3---2-|----1---3---2---1---3---2---1---0-|
D|----3---2---1---3---2---1---3---2-|----1---3---2---1---3---2---1---0-|
      '       '       '       '          '       '       '       '

     F5  E5 D#5  F5  E5 D#5  F5  E5    D#5  F5  E5 D#5  F5  E5 D#5  D5
e|----------------------------------|----------------------------------|
B|----------------------------------|----------------------------------|
G|----------------------------------|----------------------------------|
D|----3---2---1---3---2---1---3---2-|----1---3---2---1---3---2---1---0-|
A|----3---2---1---3---2---1---3---2-|----1---3---2---1---3---2---1---0-|
D|----3---2---1---3---2---1---3---2-|----1---3---2---1---3---2---1---0-|
      '       '       '       '          '       '       '       '

     F5  E5 D#5  F5  E5 D#5  F5  E5    D#5  F5  E5 D#5  F5  E5 D#5  D5
e|----------------------------------|----------------------------------|
B|----------------------------------|----------------------------------|
G|----------------------------------|----------------------------------|
D|----3---2---1---3---2---1---3---2-|----1---3---2---1---3---2---1---0-|
A|----3---2---1---3---2---1---3---2-|----1---3---2---1---3---2---1---0-|
D|----3---2---1---3---2---1---3---2-|----1---3---2---1---3---2---1---0-|
      '       '       '       '          '       '       '       '

     F5  E5 D#5  F5  E5 D#5  F5  E5    D#5  F5  E5 D#5  F5  E5 D#5  D5
e|----------------------------------|----------------------------------|
B|----------------------------------|----------------------------------|
G|----------------------------------|----------------------------------|
D|----3---2---1---3---2---1---3---2-|----1---3---2---1---3---2---1---0-|
A|----3---2---1---3---2---1---3---2-|----1---3---2---1---3---2---1---0-|
D|----3---2---1---3---2---1---3---2-|----1---3---2---1---3---2---1---0-|
      '       '       '       '          '       '       '       '

[Verse] (0:25 - 0:37)

     F5  E5 D#5  F5  E5 D#5  F5  E5    D#5  F5  E5 D#5  F5  E5 D#5  D5
e|----------------------------------|----------------------------------|
B|----------------------------------|----------------------------------|
G|----------------------------------|----------------------------------|
D|----3---2---1---3---2---1---3---2-|----1---3---2---1---3---2---1---0-|
A|----3---2---1---3---2---1---3---2-|----1---3---2---1---3---2---1---0-|
D|----3---2---1---3---2---1---3---2-|----1---3---2---1---3---2---1---0-|
      '       '       '       '          '       '       '       '

     F5  E5 D#5  F5  E5 D#5  F5  E5    D#5  F5  E5 D#5  F5  E5 D#5  D5
e|----------------------------------|----------------------------------|
B|----------------------------------|----------------------------------|
G|----------------------------------|----------------------------------|
D|----3---2---1---3---2---1---3---2-|----1---3---2---1---3---2---1---0-|
A|----3---2---1---3---2---1---3---2-|----1---3---2---1---3---2---1---0-|
D|----3---2---1---3---2---1---3---2-|----1---3---2---1---3---2---1---0-|
      '       '       '       '          '       '       '       '

     F5  E5 D#5  F5  E5 D#5  F5  E5    D#5  F5  E5 D#5  F5  E5 D#5  D5
e|----------------------------------|----------------------------------|
B|----------------------------------|----------------------------------|
G|----------------------------------|----------------------------------|
D|----3---2---1---3---2---1---3---2-|----1---3---2---1---3---2---1---0-|
A|----3---2---1---3---2---1---3---2-|----1---3---2---1---3---2---1---0-|
D|----3---2---1---3---2---1---3---2-|----1---3---2---1---3---2---1---0-|
      '       '       '       '          '       '       '       '

     F5  E5 D#5  F5  E5 D#5  F5  E5    D#5  F5  E5 D#5  F5  E5 D#5  D5
e|----------------------------------|----------------------------------|
B|----------------------------------|----------------------------------|
G|----------------------------------|----------------------------------|
D|----3---2---1---3---2---1---3---2-|----1---3---2---1---3---2---1---0-|
A|----3---2---1---3---2---1---3---2-|----1---3---2---1---3---2---1---0-|
D|----3---2---1---3---2---1---3---2-|----1---3---2---1---3---2---1---0-|
      '       '       '       '          '       '       '       '

[Interlude] (0:37 - 0:44)
    B5    B5    B5    B5 B5       B5    B5    B5 B5
e|--------------------------|-------------------------|------------------|
B|--------------------------|-------------------------|------------------|
G|---4-----4-----4-----4--4-|------4-----4-----4--4---|--4---4---4-4---4-|
D|---4-----4-----4-----4--4-|------4-----4-----4--4---|------------------|
A|---2-----2-----2-----2--2-|------2-----2-----2--2---|------------------|
D|--------------------------|-------------------------|------------------|
     '     '     '     '        '     '     '     '      '   '   '   '

                                              Bmin7
e|--------------------------------------------------|
B|--------------------------------------------------|
G|------------4-----4-----4-----4-----4-----4-----4-|
D|------------------------------------------0-----0-|
A|------------------------------------------------0-|
D|--------------------------------------------------|
        '           '           '           '

[Verse] (0:44 - 0:56)
     F5  E5 D#5  F5  E5 D#5  F5  E5    D#5  F5  E5 D#5  F5  E5 D#5  D5
e|----------------------------------|----------------------------------|
B|----------------------------------|----------------------------------|
G|----------------------------------|----------------------------------|
D|----3---2---1---3---2---1---3---2-|----1---3---2---1---3---2---1---0-|
A|----3---2---1---3---2---1---3---2-|----1---3---2---1---3---2---1---0-|
D|----3---2---1---3---2---1---3---2-|----1---3---2---1---3---2---1---0-|
      '       '       '       '          '       '       '       '

     F5  E5 D#5  F5  E5 D#5  F5  E5    D#5  F5  E5 D#5  F5  E5 D#5  D5
e|----------------------------------|----------------------------------|
B|----------------------------------|----------------------------------|
G|----------------------------------|----------------------------------|
D|----3---2---1---3---2---1---3---2-|----1---3---2---1---3---2---1---0-|
A|----3---2---1---3---2---1---3---2-|----1---3---2---1---3---2---1---0-|
D|----3---2---1---3---2---1---3---2-|----1---3---2---1---3---2---1---0-|
      '       '       '       '          '       '       '       '

     F5  E5 D#5  F5  E5 D#5  F5  E5    D#5  F5  E5 D#5  F5  E5 D#5  D5
e|----------------------------------|----------------------------------|
B|----------------------------------|----------------------------------|
G|----------------------------------|----------------------------------|
D|----3---2---1---3---2---1---3---2-|----1---3---2---1---3---2---1---0-|
A|----3---2---1---3---2---1---3---2-|----1---3---2---1---3---2---1---0-|
D|----3---2---1---3---2---1---3---2-|----1---3---2---1---3---2---1---0-|
      '       '       '       '          '       '       '       '

     F5  E5 D#5  F5  E5 D#5  F5  E5    D#5  F5  E5 D#5  F5  E5 D#5  D5
e|----------------------------------|----------------------------------|
B|----------------------------------|----------------------------------|
G|----------------------------------|----------------------------------|
D|----3---2---1---3---2---1---3---2-|----1---3---2---1---3---2---1---0-|
A|----3---2---1---3---2---1---3---2-|----1---3---2---1---3---2---1---0-|
D|----3---2---1---3---2---1---3---2-|----1---3---2---1---3---2---1---0-|
      '       '       '       '          '       '       '       '

[Interlude] (0:56 - 1:03)
    B5    B5    B5    B5 B5       B5    B5    B5 B5
e|--------------------------|-------------------------|------------------|
B|--------------------------|-------------------------|------------------|
G|---4-----4-----4-----4--4-|------4-----4-----4--4---|--4---4---4-4---4-|
D|---4-----4-----4-----4--4-|------4-----4-----4--4---|------------------|
A|---2-----2-----2-----2--2-|------2-----2-----2--2---|------------------|
D|--------------------------|-------------------------|------------------|
     '     '     '     '        '     '     '     '      '   '   '   '

                        D#5  E5  F5
e|----------------------------------|
B|----------------------------------|
G|--------4---4---4---4-------------|
D|------------------------1---2---3-|
A|------------------------1---2---3-|
D|------------------------1---2---3-|
      '       '       '       '

Chorus (1:03 - 1:34)
    B5          B5       B5         B5      B5  B5 D#5  E5  F5
e|--------------------------|----------------------------------|
B|--------------------------|----------------------------------|
G|---4-----------4--------4-|--------4-------4---4-------------|
D|---4-----------4--------4-|--------4-------4---4---1---2---3-|
A|---2-----------2--------2-|--------2-------2---2---1---2---3-|
D|--------------------------|------------------------1---2---3-|
     '     '     '     '         '       '       '       '

    B5          A5              F5  E5 D#5         D#5  E5  F5
e|--------------------------|----------------------------------|
B|--------------------------|----------------------------------|
G|---4-----------2----------|----------------------------------|
D|---4-----------2----------|----3---2---1-----------1---2---3-|
A|---2--------0--0--------0-|----3---2---1-----------1---2---3-|
D|--------------------------|----3---2---1-----------1---2---3-|
     '     '     '     '         '       '       '       '

    B5          B5       B5         B5      B5  B5 D#5  E5  F5
e|--------------------------|----------------------------------|
B|--------------------------|----------------------------------|
G|---4-----------4--------4-|--------4-------4---4-------------|
D|---4-----------4--------4-|--------4-------4---4---1---2---3-|
A|---2-----------2--------2-|--------2-------2---2---1---2---3-|
D|--------------------------|------------------------1---2---3-|
     '     '     '     '         '       '       '       '

    B5          A5              F5  E5 D#5         D#5  E5  F5
e|--------------------------|----------------------------------|
B|--------------------------|----------------------------------|
G|---4-----------2----------|----------------------------------|
D|---4-----------2----------|----3---2---1-----------1---2---3-|
A|---2--------0--0--------0-|----3---2---1-----------1---2---3-|
D|--------------------------|----3---2---1-----------1---2---3-|
     '     '     '     '         '       '       '       '

    B5          B5       B5         B5      B5  B5 D#5  E5  F5
e|--------------------------|----------------------------------|
B|--------------------------|----------------------------------|
G|---4-----------4--------4-|--------4-------4---4-------------|
D|---4-----------4--------4-|--------4-------4---4---1---2---3-|
A|---2-----------2--------2-|--------2-------2---2---1---2---3-|
D|--------------------------|------------------------1---2---3-|
     '     '     '     '         '       '       '       '

    B5          A5              F5  E5 D#5         D#5  E5  F5
e|--------------------------|----------------------------------|
B|--------------------------|----------------------------------|
G|---4-----------2----------|----------------------------------|
D|---4-----------2----------|----3---2---1-----------1---2---3-|
A|---2--------0--0--------0-|----3---2---1-----------1---2---3-|
D|--------------------------|----3---2---1-----------1---2---3-|
     '     '     '     '         '       '       '       '

    B5          B5       B5         B5      B5  B5 D#5  E5  F5
e|--------------------------|----------------------------------|
B|--------------------------|----------------------------------|
G|---4-----------4--------4-|--------4-------4---4-------------|
D|---4-----------4--------4-|--------4-------4---4---1---2---3-|
A|---2-----------2--------2-|--------2-------2---2---1---2---3-|
D|--------------------------|------------------------1---2---3-|
     '     '     '     '         '       '       '       '

    B5          A5              F5  E5 D#5         D#5  E5  F5
e|--------------------------|----------------------------------|
B|--------------------------|----------------------------------|
G|---4-----------2----------|----------------------------------|
D|---4-----------2----------|----3---2---1-----------1---2---3-|
A|---2--------0--0--------0-|----3---2---1-----------1---2---3-|
D|--------------------------|----3---2---1-----------1---2---3-|
     '     '     '     '         '       '       '       '

    B5          B5       B5         B5      B5  B5 D#5  E5  F5
e|--------------------------|----------------------------------|
B|--------------------------|----------------------------------|
G|---4-----------4--------4-|--------4-------4---4-------------|
D|---4-----------4--------4-|--------4-------4---4---1---2---3-|
A|---2-----------2--------2-|--------2-------2---2---1---2---3-|
D|--------------------------|------------------------1---2---3-|
     '     '     '     '         '       '       '       '

    B5          A5              F5  E5 D#5         D#5  E5  F5
e|--------------------------|----------------------------------|
B|--------------------------|----------------------------------|
G|---4-----------2----------|----------------------------------|
D|---4-----------2----------|----3---2---1-----------1---2---3-|
A|---2--------0--0--------0-|----3---2---1-----------1---2---3-|
D|--------------------------|----3---2---1-----------1---2---3-|
     '     '     '     '         '       '       '       '

[Verse] (1:34 - 1:46)
     F5  E5 D#5  F5  E5 D#5  F5  E5    D#5  F5  E5 D#5  F5  E5 D#5  D5
e|----------------------------------|----------------------------------|
B|----------------------------------|----------------------------------|
G|----------------------------------|----------------------------------|
D|----3---2---1---3---2---1---3---2-|----1---3---2---1---3---2---1---0-|
A|----3---2---1---3---2---1---3---2-|----1---3---2---1---3---2---1---0-|
D|----3---2---1---3---2---1---3---2-|----1---3---2---1---3---2---1---0-|
      '       '       '       '          '       '       '       '

     F5  E5 D#5  F5  E5 D#5  F5  E5    D#5  F5  E5 D#5  F5  E5 D#5  D5
e|----------------------------------|----------------------------------|
B|----------------------------------|----------------------------------|
G|----------------------------------|----------------------------------|
D|----3---2---1---3---2---1---3---2-|----1---3---2---1---3---2---1---0-|
A|----3---2---1---3---2---1---3---2-|----1---3---2---1---3---2---1---0-|
D|----3---2---1---3---2---1---3---2-|----1---3---2---1---3---2---1---0-|
      '       '       '       '          '       '       '       '

     F5  E5 D#5  F5  E5 D#5  F5  E5    D#5  F5  E5 D#5  F5  E5 D#5  D5
e|----------------------------------|----------------------------------|
B|----------------------------------|----------------------------------|
G|----------------------------------|----------------------------------|
D|----3---2---1---3---2---1---3---2-|----1---3---2---1---3---2---1---0-|
A|----3---2---1---3---2---1---3---2-|----1---3---2---1---3---2---1---0-|
D|----3---2---1---3---2---1---3---2-|----1---3---2---1---3---2---1---0-|
      '       '       '       '          '       '       '       '

     F5  E5 D#5  F5  E5 D#5  F5  E5    D#5  F5  E5 D#5  F5  E5 D#5  D5
e|----------------------------------|----------------------------------|
B|----------------------------------|----------------------------------|
G|----------------------------------|----------------------------------|
D|----3---2---1---3---2---1---3---2-|----1---3---2---1---3---2---1---0-|
A|----3---2---1---3---2---1---3---2-|----1---3---2---1---3---2---1---0-|
D|----3---2---1---3---2---1---3---2-|----1---3---2---1---3---2---1---0-|
      '       '       '       '          '       '       '       '

[Interlude] (1:46 - 1:53)
    B5    B5    B5    B5 B5       B5    B5    B5 B5
e|--------------------------|-------------------------|------------------|
B|--------------------------|-------------------------|------------------|
G|---4-----4-----4-----4--4-|------4-----4-----4--4---|--4---4---4-4---4-|
D|---4-----4-----4-----4--4-|------4-----4-----4--4---|------------------|
A|---2-----2-----2-----2--2-|------2-----2-----2--2---|------------------|
D|--------------------------|-------------------------|------------------|
     '     '     '     '        '     '     '     '      '   '   '   '

                                              Bmin7
e|--------------------------------------------------|
B|--------------------------------------------------|
G|------------4-----4-----4-----4-----4-----4-----4-|
D|------------------------------------------0-----0-|
A|------------------------------------------------0-|
D|--------------------------------------------------|
        '           '           '           '

[Verse] (1:53 - 2:05)
     F5  E5 D#5  F5  E5 D#5  F5  E5    D#5  F5  E5 D#5  F5  E5 D#5  D5
e|----------------------------------|----------------------------------|
B|----------------------------------|----------------------------------|
G|----------------------------------|----------------------------------|
D|----3---2---1---3---2---1---3---2-|----1---3---2---1---3---2---1---0-|
A|----3---2---1---3---2---1---3---2-|----1---3---2---1---3---2---1---0-|
D|----3---2---1---3---2---1---3---2-|----1---3---2---1---3---2---1---0-|
      '       '       '       '          '       '       '       '

     F5  E5 D#5  F5  E5 D#5  F5  E5    D#5  F5  E5 D#5  F5  E5 D#5  D5
e|----------------------------------|----------------------------------|
B|----------------------------------|----------------------------------|
G|----------------------------------|----------------------------------|
D|----3---2---1---3---2---1---3---2-|----1---3---2---1---3---2---1---0-|
A|----3---2---1---3---2---1---3---2-|----1---3---2---1---3---2---1---0-|
D|----3---2---1---3---2---1---3---2-|----1---3---2---1---3---2---1---0-|
      '       '       '       '          '       '       '       '

     F5  E5 D#5  F5  E5 D#5  F5  E5    D#5  F5  E5 D#5  F5  E5 D#5  D5
e|----------------------------------|----------------------------------|
B|----------------------------------|----------------------------------|
G|----------------------------------|----------------------------------|
D|----3---2---1---3---2---1---3---2-|----1---3---2---1---3---2---1---0-|
A|----3---2---1---3---2---1---3---2-|----1---3---2---1---3---2---1---0-|
D|----3---2---1---3---2---1---3---2-|----1---3---2---1---3---2---1---0-|
      '       '       '       '          '       '       '       '

     F5  E5 D#5  F5  E5 D#5  F5  E5    D#5  F5  E5 D#5  F5  E5 D#5  D5
e|----------------------------------|----------------------------------|
B|----------------------------------|----------------------------------|
G|----------------------------------|----------------------------------|
D|----3---2---1---3---2---1---3---2-|----1---3---2---1---3---2---1---0-|
A|----3---2---1---3---2---1---3---2-|----1---3---2---1---3---2---1---0-|
D|----3---2---1---3---2---1---3---2-|----1---3---2---1---3---2---1---0-|
      '       '       '       '          '       '       '       '

[Interlude] (2:05 - 2:12)
    B5    B5    B5    B5 B5       B5    B5    B5 B5
e|--------------------------|-------------------------|------------------|
B|--------------------------|-------------------------|------------------|
G|---4-----4-----4-----4--4-|------4-----4-----4--4---|--4---4---4-4---4-|
D|---4-----4-----4-----4--4-|------4-----4-----4--4---|------------------|
A|---2-----2-----2-----2--2-|------2-----2-----2--2---|------------------|
D|--------------------------|-------------------------|------------------|
     '     '     '     '        '     '     '     '      '   '   '   '

                        D#5  E5  F5
e|----------------------------------|
B|----------------------------------|
G|--------4---4---4---4-------------|
D|------------------------1---2---3-|
A|------------------------1---2---3-|
D|------------------------1---2---3-|
      '       '       '       '

[Chorus] (2:12 - 2:41)
    B5          B5       B5         B5      B5  B5 D#5  E5  F5
e|--------------------------|----------------------------------|
B|--------------------------|----------------------------------|
G|---4-----------4--------4-|--------4-------4---4-------------|
D|---4-----------4--------4-|--------4-------4---4---1---2---3-|
A|---2-----------2--------2-|--------2-------2---2---1---2---3-|
D|--------------------------|------------------------1---2---3-|
     '     '     '     '         '       '       '       '

    B5          A5              F5  E5 D#5         D#5  E5  F5
e|--------------------------|----------------------------------|
B|--------------------------|----------------------------------|
G|---4-----------2----------|----------------------------------|
D|---4-----------2----------|----3---2---1-----------1---2---3-|
A|---2--------0--0--------0-|----3---2---1-----------1---2---3-|
D|--------------------------|----3---2---1-----------1---2---3-|
     '     '     '     '         '       '       '       '

    B5          B5       B5         B5      B5  B5 D#5  E5  F5
e|--------------------------|----------------------------------|
B|--------------------------|----------------------------------|
G|---4-----------4--------4-|--------4-------4---4-------------|
D|---4-----------4--------4-|--------4-------4---4---1---2---3-|
A|---2-----------2--------2-|--------2-------2---2---1---2---3-|
D|--------------------------|------------------------1---2---3-|
     '     '     '     '         '       '       '       '

    B5          A5              F5  E5 D#5         D#5  E5  F5
e|--------------------------|----------------------------------|
B|--------------------------|----------------------------------|
G|---4-----------2----------|----------------------------------|
D|---4-----------2----------|----3---2---1-----------1---2---3-|
A|---2--------0--0--------0-|----3---2---1-----------1---2---3-|
D|--------------------------|----3---2---1-----------1---2---3-|
     '     '     '     '         '       '       '       '

    B5          B5       B5         B5      B5  B5 D#5  E5  F5
e|--------------------------|----------------------------------|
B|--------------------------|----------------------------------|
G|---4-----------4--------4-|--------4-------4---4-------------|
D|---4-----------4--------4-|--------4-------4---4---1---2---3-|
A|---2-----------2--------2-|--------2-------2---2---1---2---3-|
D|--------------------------|------------------------1---2---3-|
     '     '     '     '         '       '       '       '

    B5          A5              F5  E5 D#5         D#5  E5  F5
e|--------------------------|----------------------------------|
B|--------------------------|----------------------------------|
G|---4-----------2----------|----------------------------------|
D|---4-----------2----------|----3---2---1-----------1---2---3-|
A|---2--------0--0--------0-|----3---2---1-----------1---2---3-|
D|--------------------------|----3---2---1-----------1---2---3-|
     '     '     '     '         '       '       '       '

    B5          B5       B5         B5      B5  B5 D#5  E5  F5
e|--------------------------|----------------------------------|
B|--------------------------|----------------------------------|
G|---4-----------4--------4-|--------4-------4---4-------------|
D|---4-----------4--------4-|--------4-------4---4---1---2---3-|
A|---2-----------2--------2-|--------2-------2---2---1---2---3-|
D|--------------------------|------------------------1---2---3-|
     '     '     '     '         '       '       '       '

    B5          A5              F5  E5 D#5         D#5  E5  F5
e|--------------------------|----------------------------------|
B|--------------------------|----------------------------------|
G|---4-----------2----------|----------------------------------|
D|---4-----------2----------|----3---2---1-----------1---2---3-|
A|---2--------0--0--------0-|----3---2---1-----------1---2---3-|
D|--------------------------|----3---2---1-----------1---2---3-|
     '     '     '     '         '       '       '       '

    B5          B5       B5         B5      B5  B5 D#5  E5  F5
e|--------------------------|----------------------------------|
B|--------------------------|----------------------------------|
G|---4-----------4--------4-|--------4-------4---4-------------|
D|---4-----------4--------4-|--------4-------4---4---1---2---3-|
A|---2-----------2--------2-|--------2-------2---2---1---2---3-|
D|--------------------------|------------------------1---2---3-|
     '     '     '     '         '       '       '       '

    B5          A5
e|--------------------------|
B|--------------------------|
G|---4-----------2----------|
D|---4-----------2----------|
A|---2--------0--0--------0-|
D|--------------------------|
     '     '     '     '

[Outro] (2:41 - 2:46)
     F5  E5 D#5
e|---------------------------------|-----|-----|
B|---------------------------------|-----|-----|
G|---------------------------------|-----|-----|
D|----3---2---1--------------------|-----|-----|
A|----3---2---1--------------------|-----|-----|
D|----3---2---1--------------------|-----|-----|
      '       '       '       '      ''''  ''''

Noguitar (2:46 - 2:47)            
Submit corrections


        Anorexorcist lessons Hard to play? Try these video lessons and learn fast Anorexorcist lessons
        
↑ Back to top | Tablatures and chords for acoustic guitar and electric guitar, ukulele, drums are parodies/interpretations of the original songs. You may use it for private study, scholarship, research or language learning purposes only