Home » N » Nintendo »

Nintendo - Gerudo Valey - Zelda Tabs

Artists:  A B C D E F G H I J K L M N O P Q R S T U V W X Y Z # 

Gerudo Valey - Zelda Tabs

(ver. 1) Click to play this song!
Nintendo
Gerudo Valley.


|---------------------|---------------------|
|-----------9--10-----|-----------9--10-----|
|-------11------------|-------11------------|       X 2
|---11----------------|---11----------------|
|---------------------|---------------------|
|---------------------|---------------------|


 
|---------------------|---------------------|
|-----------9---------|------------9--------|
|----9--10------------|-----9--10-----------|
|--9------------------|--9------------------|
|---------------------|---------------------|
|---------------------|---------------------|



|---------------------|---------------------|
|--------9------------|-------9-------------|
|---10------10--9-----|---10-----10--9------|
|---------------------|---------------------|
|---------------------|---------------------|
|---------------------|---------------------|
            
Submit corrections

↑ Back to top | Tablatures and chords for acoustic guitar and electric guitar, ukulele, drums are parodies/interpretations of the original songs. You may use it for private study, scholarship, research or language learning purposes only