Home » N » Nino Rota »

Nino Rota - The Godfather Waltz Tabs

Artists:  A B C D E F G H I J K L M N O P Q R S T U V W X Y Z # 

The Godfather Waltz Tabs

(ver. 1) Click to play this song!
Nino Rota
Tuning: E A D G B e


e|-----------------------------------------|-----------------------------------------|
B|-3-----2h3--4-----3--3-------------------|-3-----2h3--4-----3--3-------------------|
G|---------------0--------3-----------3----|---------------0--------2-----------2----|
D|----0----------------------0-----0-------|----0----------------------3--0--3-------|
A|------------3----------------------------|------------3----------------------------|
E|-3-------------------3--------3----------|-3-------------------1-------------------|


e|------------1--------------0-------------|-----------------------------------------|
B|-3-----2h3--------3--2--------3----------|----------3-----2------------------------|
G|---------------0--------2--------2-------|-3--2--3-----------2---------------------|
D|----0-------------------------0----------|----0--------2--------3------------------|
A|------------3--------0--------------1----|----------0--------------3-----0--3------|
E|-3---------------------------------------|-3-----------------1--------1------------|
            
Submit corrections

↑ Back to top | Tablatures and chords for acoustic guitar and electric guitar, ukulele, drums are parodies/interpretations of the original songs. You may use it for private study, scholarship, research or language learning purposes only