Home » N » Nils Lofgren »

Nils Lofgren - You Tabs

Artists:  A B C D E F G H I J K L M N O P Q R S T U V W X Y Z # 

You Tabs

(ver. 1) Click to play this song!
Nils Lofgren
Nils Lofgren

Hi. Here is finally a tab of ”You” as many of you have requested. Sorry but i could not 
out the solo. This is really some tricky stuff but i had a lot fun lerning so i i hope u 
it.  Enjoy!

P.S! Please send sugestions if it are good or can be better.


Use capo on 1 fret

Intro.

   Em             C        D

e|----------------------------22------------------|
B|--------2/4--2h4p-----------33------------------|
G|------------------542-5545--22-|  x 3 - | G G---|
D|-22---------------------------------------------|
A|-22---------------------------------------------|
E|-00---------------------------------------------|


Vers. |Em C D |Em C D |Em C D G | C D G |G G |

Vers2. |Am C D |Am C G |Am C D |Am C Em |C D |C D |

Chorus. |Em C D |Em C D |Em C D G | C D G |G G |

Vers. |Am C D |Am C G |Am C D |Am C D |

Solo.

   Em             C        D

e|----------------------------22-|
B|--------2/4--2h4p-----------33-|
G|------------------542-5545--22-|  x 3
D|-22----------------------------|
A|-22----------------------------|
E|-00----------------------------|


|C Em Am7 |C Em D | C Em C D | C C |


Vers. |Am C D |C D D |Em C D |Em C D |Em C D G |

Outro. |C D G |C D Em |


   Em             C        D

e|----------------------------22-----------------------------|
B|--------2/4--2h4p-----------33-----------------------------|
G|------------------542-5545--22-|  x 3 – |C C C C | Em ..---|
D|-22--------------------------------------------------------|
A|-22--------------------------------------------------------|
E|-00--------------------------------------------------------|
            
Submit corrections

↑ Back to top | Tablatures and chords for acoustic guitar and electric guitar, ukulele, drums are parodies/interpretations of the original songs. You may use it for private study, scholarship, research or language learning purposes only