» » »

Nick 13 - Restless Moon Tabs

Artists:  A B C D E F G H I J K L M N O P Q R S T U V W X Y Z # 

Restless Moon Tabs

(ver. 1) Click to play this song!
Nick 13
 Rating:
3.7/5 (6 votes)

 Restless Moon lessons Tabs too difficult? Try these video lessons and learn fast
 
                
Back with another. This is the 5th track off of Nick 13's long
anticipated solo country album. Very upbeat and fun song to play.
Very simple format and very simple chord progression. The chord names
and frets are NOT relative to the capo. Reason is, for those who
don't have a capo, they can play the regular barre chords if they want.
I learned through the capo, which is why it's tabbed out this way.
Strums are not exact. Listen for the changes. LETS GO!!!


Key of Ab. CAPO ON THE FIRST FRET if you have one. 

*****FRETS AND CHORD NAMES ARE NOT RELATIVE TO CAPO. FRETS ARE LISTED AS
IF IT'S NOT THERE****

Two guitars in this. Nick just plays basic I,IV,V open chords which are listed below
     Ab      Db       Eb   Db    Ab/Absus4/Ab
e|--0-----|-------|---3--|-----|---0--0--0------|
B|--0-----|---2---|---4--|--2--|---0--2--0------|
G|--0-----|---0---|---3--|--0--|---0--0--0------|
D|--0-----|---3---|------|--3--|---0--0--0------|
A|--3-----|---4---|------|--4--|---3--3--3------|
E|--4-----|-------|------|-----|---4--4--4------|

INTRO (lead): 
e|----------------------|--------------------------|-------------|
B|-------------/4---4-4~|--4---4h6--4---4h6--6-6~--|-6--6h8--6---|
G|----5--6-----/5---5-5~|--5---5h6--5---5h6--6-6~--|-6--6h8--6---|
D|--6----6--------------|--------------------------|-------------|
A|----------------------|--------------------------|-------------|
E|----------------------|--------------------------|-------------|

e|--------------------------------------------4---|
B|-6/8--8-8--8\6--6--6/8--6---6\4-----4-----------|
G|-6/8--8-8--8\6--6--6/8--6---6\5-----5-----------|
D|------------------------------------------------|
A|------------------------------------------------|
E|------------------------------------------------|


VERSE 1(lead)
Nick plays the chord progression I listed above.

"Oh restless moon. Shine down on me"
             Ab                  Db
e|-------------------------------------------|
B|------------------------------------2~-----|
G|-------------------------------------------|
D|--------------------------------0h3--------|
A|-------------------------------------------|
E|-------------------------------------------|

"You pull my heart behind you like the tides"
    Eb              Db                    Ab
e|---3------------------------------------4---------4~--|
B|---4--------------2~----------------------4-------4~--|
G|---3--------------0~------------------------5h6---5~--|
D|------------------3~----------------------------------|
A|------------------4~----------------------------------|
E|------------------------------------------------------|

"Oh restless moon, would you set me free"
             Ab                             Db
e|------------4~-----------------------------------|
B|------------4~-----------------------------------|
G|------------5~----------------------------6~-----|
D|-------------------------------------------------|
A|-------------------------------------------------|
E|-------------------------------------------------|

"From these worries bigger than the sky"
    Eb              Db                 Ab
e|--3-----------------------------------4----------|
B|--4---------------2---2-----------------4--------|
G|--3---------------0-----------------------6-5----|
D|------------------3------------------------------|
A|------------------4------------------------------|
E|-------------------------------------------------|

CHORUS(Nick's progression)
    Fm   Ab         Bbm   Eb
e|--0----0---|    |-------3~----|
B|--0----0---|    |--2----4~----|
G|--0----0---| X3 |--3----3~----|
D|--3----0---|    |--3----------|
A|--3----3---|    |-------------|
E|-------4---|    |-------------|

"Cause I've driven under this restless moon"
                   Fm                     Ab
e|------------------0~------------------4----------4~---|
B|------------------0~---4----------------4--------4~---|
G|------------------0~----------------------5h6----5~---|
D|------------------3~----------------------------------|
A|------------------3~----------------------------------|
E|------------------------------------------------------|

"The road stretches on forever just like the night"
                     Fm                              Ab
e|--------------------0~---0-------------------------4-------4~--|
B|--------------------0~-----0------------------------4------4~--|
G|--------------------0~-------------------------------5h6---5~--|
D|--------------------3~-----------------------------------------|
A|--------------------3~-----------------------------------------|
E|--4^-4^--------------------------------------------------------|

"And I've traveled over all these weary blues"
                   Fm                       Ab
e|------------------0~----0-------------------4-------4~---|
B|------------------0~------0------------------4------4~---|
G|------------------0~--------------------------5h6---5~---|
D|------------------3~-------------------------------------|
A|------------------3~-------------------------------------|
E|--4^-4^--------------------------------------------------|

"That burst like fireworks when I see your light"
      Bbm                                   Eb
e|------------------------------------------3-----------3--|
B|-----2------------------------------------4--------------|
G|-----3------------------------------------3------0h3-----|
D|-----3---------------------------------------------------|
A|---------------------------------------------------------|
E|---------------------------------------------------------|

VERSE 2(lead):

Oh restless moon, shine down on me
e|---------------------------------------0~---|
B|-----------------------------------2~--2~---|
G|--------------------------------------------|
D|------------------------------0h3-----------|
A|--------------------------------------------|
E|--------------------------------------------|

"I know that you will be my guide back home"
     Eb                Db                Ab
e|----3----------------------------------4----4-----4----4~--|
B|----4----------------2---2-------------4----4-----4----4~--|
G|----3----------------0-----------------5----5h6---6----5~--|
D|---------------------3-------------------------------------|
A|---------------------4-------------------------------------|
E|-----------------------------------------------------------|

"Oh restless moon, would you set me free"
             Ab                             Db
e|------------4~-----------------------------------|
B|------------4~-----------------------------------|
G|------------5~----------------------------6~-----|
D|-------------------------------------------------|
A|-------------------------------------------------|
E|-------------------------------------------------|

"And soon one of these nights I won't be alone"
    Eb              Db                 Ab
e|--3-----------------------------------4----------|
B|--4---------------2---2-----------------4--------|
G|--3---------------0-----------------------6-5----|
D|------------------3------------------------------|
A|------------------4------------------------------|
E|-------------------------------------------------|

CHORUS(lead):
"Cause I've driven under this restless moon"
                   Fm                     Ab
e|------------------0~------------------4----------4~---|
B|------------------0~---4----------------4--------4~---|
G|------------------0~----------------------5h6----5~---|
D|------------------3~----------------------------------|
A|------------------3~----------------------------------|
E|------------------------------------------------------|

"The road stretches on forever just like the night"
                     Fm                              Ab
e|--------------------0~---0-------------------------4-------4~--|
B|--------------------0~-----0------------------------4------4~--|
G|--------------------0~-------------------------------5h6---5~--|
D|--------------------3~-----------------------------------------|
A|--------------------3~-----------------------------------------|
E|--4^-4^--------------------------------------------------------|

"And I've traveled over all these weary blues"
                   Fm                       Ab
e|------------------0~----0-------------------4-------4~--------|
B|------------------0~------0------------------4------4~--------|
G|------------------0~--------------------------5h6---5~--------|
D|------------------3~------------------------------------------|
A|------------------3~---------------------------------------3--|
E|--4^-4^--------------------------------------------------4---4|

"That burst like fireworks when I see your light"
      Bbm                                   Eb
e|---------0---------------------------------3-----------3--|
B|-----2-----2-------------------------------4--------------|
G|-----3-------------------------------------3------0h3-----|
D|-----3----------------------------------------------------|
A|----------------------------------------------------------|
E|----------------------------------------------------------|

Repeat INTRO(lead)

SOLO:
e|-----11----9----6/8---8---6---8--|-8---8/9---8-----8/9---9---9-9--|
B|---------------------------------|--------------------------------|
G|-12-------10----6/8-------6---8--|-8---8/9---8-----9/10----10-----|
D|---------------------------------|--------------------------------|
A|---------------------------------|--------------------------------|
E|---------------------------------|--------------------------------|

e|--9----9/11---9--|---9/11------11----11\9------9----9/11----9-|
B|-----------------|--------------------------------------------|
G|-10---10/12--10--|--10/12---12-------12\10----10---10/12---10-|
D|-----------------|--------------------------------------------|
A|-----------------|--------------------------------------------|
E|-----------------|--------------------------------------------|

e|--9\8---8----8----|
B|------------------|
G|-10\8-----8-------|
D|------------------|
A|------------------|
E|------------------|


"Cause I've driven under this restless moon"
                   Fm                     Ab
e|------------------0~------------------4----------4~---|
B|------------------0~---4----------------4--------4~---|
G|------------------0~----------------------5h6----5~---|
D|------------------3~----------------------------------|
A|------------------3~----------------------------------|
E|------------------------------------------------------|

"The road stretches on forever just like the night"
                     Fm                              Ab
e|--------------------0~---0-------------------------4-------4~--|
B|--------------------0~-----0------------------------4------4~--|
G|--------------------0~-------------------------------5h6---5~--|
D|--------------------3~-----------------------------------------|
A|--------------------3~-----------------------------------------|
E|--4^-4^--------------------------------------------------------|

"And I've traveled over all these weary blues"
                   Fm                       Ab
e|------------------0~----0-------------------4-------4~------------------|
B|------------------0~------0------------------4------4~------------------|
G|------------------0~--------------------------5h6---5~------------------|
D|------------------3~--------------------------------------0-3-0---------|
A|------------------3~---------------------------------------------4-3----|
E|--4^-4^-----------------------------------------------------------------|

"That burst like fireworks when I see your light"
      Bbm                                   Eb
e|---------0---------------------------------3-----------3--|
B|-----2-----2-------------------------------4--------------|
G|-----3-------------------------------------3------0h3-----|
D|-----3----------------------------------------------------|
A|----------------------------------------------------------|
E|----------------------------------------------------------|

After this, Nick just sings and plays his progression

The lead guitar plays this during Nick 13's falsetto singing
e|--8-------|
B|----9-----|
G|------8^--|
D|----------|
A|----------|
E|----------|

Finish off with Nick playing Ab/Fm. End on Ab

Lead just plays this during the ending
e|--8---------|
B|----9-------|
G|------8-----|
D|------------|
A|------------|
E|------------|

Hopefully that was easy to understand. Next up is "Mexicali Baby"
            
Submit corrections


        Restless Moon lessons Hard to play? Try these video lessons and learn fast Restless Moon lessons
        
↑ Back to top | Tablatures and chords for acoustic guitar and electric guitar, ukulele, drums are parodies/interpretations of the original songs. You may use it for private study, scholarship, research or language learning purposes only