» » »

Ne-Yo - Single Tabs

Artists:  A B C D E F G H I J K L M N O P Q R S T U V W X Y Z # 

Single Tabs

(ver. 1) Click to play this song!
Ne-Yo
 Rating:
4.2/5 (5 votes)
                ok guys this is as closest as i can get i guess if any mistakes plz tell me......enjoy.....


e------------|-----------|---------|---------|
B---------13-|--------12-|-------8-|------10-|
G---------12-|--------11-|-------9-|-------9-|
D------14----|-----12----|----9---|----10---|
A--12--------|-10--------|-7-------|-8-------|
E------------|-----------|---------|---------|

e------------|-----------|-------------12----------|
B---------13-|--------12-|-12-12-12-12----12-13--8-|
G---------12-|--------11-|-------------------------|
D------14----|-----12----|-------------------------|
A--12--------|-10--------|-------------------------|
E------------|-----------|-------------------------|


tafter the intro play this till end:   Fmaj  G  Eminor  Fmaj (repeat)
            
Submit corrections

↑ Back to top | Tablatures and chords for acoustic guitar and electric guitar, ukulele, drums are parodies/interpretations of the original songs. You may use it for private study, scholarship, research or language learning purposes only