Home » N » New York Dolls »

New York Dolls - Subway Train Bass

Artists:  A B C D E F G H I J K L M N O P Q R S T U V W X Y Z # 

Subway Train Bass

(ver. 1) Click to play this song!
New York Dolls
Gtr I (E A D G) - 'Arthur "Killer" Kane - Bass'


   Intro
    Q=126
   4/4
    Gtr I
    W           H.      Q    H.      Q    H.      Q
||-----------|-------------|------------|--------------||
||o----------|-------------|------------|-------------o||
||o----------|-/7-------7--|-5-------5--|-5-------5---o||
||--3--------|-------------|------------|--------------||


   1st - 3rd Verses
    $
    H.      E E   W          W          H.      Q
||--------------|----------|----------|-------------|
||o-------------|----------|----------|-------------|
||o---------5-6-|-7--------|-5--------|-5-------5---|
||--3-----------|----------|----------|-------------|


  W           W          W          H.      Q
|----------|-----------|----------|------------|
|----------|-----------|----------|------------|
|----------|-/7--------|-5--------|-5-------5--|
|-3--------|-----------|----------|------------|


  W           W          W          H.      Q
|----------|-----------|----------|------------|
|----------|-----------|----------|------------|
|----------|-/7--------|-5--------|-5-------5--|
|-3--------|-----------|----------|------------|


                                       faster Q=140
  W           W          Q  Q  Q  Q    E E E E E E E E
|----------|-----------|-------------|-----------------||
|----------|-----------|-------------|-----------------||
|----------|-/7--------|-5--5--5--5--|-5-5-5-5-5-5-5-5-||
|-3--------|-----------|-------------|-----------------||


 Chorus
  E E E E E E E E   E E E E E E E E   E E E E E E E E   E E E E E E E E
|-----------------|-----------------|-----------------|------------------|
|-----------------|-----------------|-----------------|------------------|
|-----------------|-----------------|-5-5-5-5-5-5-5-5-|-5-5-5-5-5-5-5-5--|
|-5-5-5-5-5-5-5-5-|-5-5-5-5-5-5-5-5-|-----------------|------------------|


                                                       1.
  E E E E E E E E   E E E E E E E E   E E E E E E E E   E E Q  H
|-----------------|-----------------|-----------------|--------------||
|-----------------|-----------------|-----------------|-------------o||
|-----------------|-----------------|-5-5-5-5-5-5-5-5-|-5-----------o||
|-5-5-5-5-5-5-5-5-|-5-5-5-5-5-5-5-5-|-----------------|--------------||


  2.,D.S.
  E E E E E E E E   E E E E E E E E   E E E E E E E E   E E E E E E E E
|-----------------|-----------------|-----------------|------------------|
|-----------------|-----------------|-----------------|------------------|
|-5-5-5-5-5-5-5-5-|-----------------|-----------------|-5-5-5-5-5-5-5-5--|
|-----------------|-5-5-5-5-5-5-5-5-|-5-5-5-5-5-5-5-5-|------------------|


  E E E E E E E E   E E E E E E E E   E E E E E E E E   E E E E E E E E
|-----------------|-----------------|-----------------|------------------|
|-----------------|-----------------|-----------------|------------------|
|-5-5-5-5-5-5-5-5-|-----------------|-----------------|-5-5-5-5-5-5-5-5--|
|-----------------|-5-5-5-5-5-5-5-5-|-5-5-5-5-5-5-5-5-|------------------|


                      Guitar Solo
           To Coda
  E E E E E E E E      E E E E E E E E   E E E E E E E E   E E E E E E E E
|------------------||------------------|-----------------|-----------------|
|------------------||o-----------------|-----------------|-----------------|
|-5-5-5-5-5-5-5-5--||o-----------------|-----------------|-5-5-5-5-5-5-5-5-|
|------------------||--5-5-5-5-5-5-5-5-|-5-5-5-5-5-5-5-5-|-----------------|


                                     Outro
  1.,2.,3.,4.        5.
                   D.S. al Coda   &
  E E E E E E E E  5x E E Q  H        E E E E E E E E   E E E E E E E E
|------------------||-------------||------------------|------------------|
|-----------------o||-------------||o-----------------|------------------|
|-5-5-5-5-5-5-5-5-o||-5-----------||o-----------------|------------------|
|------------------||-------------||--5-5-5-5-5-5-5-5-|-5-5-5-5-5-5-5-5--|


  E E E E E E E E   E E E E E E E E  6x E E E E E E E E
|-----------------|------------------||-----------------|
|-----------------|-----------------o||-----------------|
|-5-5-5-5-5-5-5-5-|-5-5-5-5-5-5-5-5-o||-----------------|
|-----------------|------------------||-5-5-5-5-5-5-5-5-|


                              H.=H
  E E E E E E E E   E E Q  Q  Q    E Q  E +H       +W
|-----------------|--------------|---------------|--------*|
|-----------------|--------------|---------------|--------*|
|-----------------|-5-5-5--5--5--|-5-------------|--------*|
|-5-5-5-5-5-5-5-5-|--------------|------5-(5)----|-(5)----*|
            
Submit corrections

↑ Back to top | Tablatures and chords for acoustic guitar and electric guitar, ukulele, drums are parodies/interpretations of the original songs. You may use it for private study, scholarship, research or language learning purposes only