Home » N » New York Dolls »

New York Dolls - Chatterbox Ukulele

Artists:  A B C D E F G H I J K L M N O P Q R S T U V W X Y Z # 

Chatterbox Ukulele

(ver. 1) Click to play this song!
New York Dolls
This song is by far the best of the NY dolls. The riffs are just awesome and the solo is 
pure attitude (here may be a bit weird, but figure it out by yourselves). Sylvain often 
does a Esus4 between E's during verses.

~ Pull down
/ slide
b Bend note


1-2-3-4

INTRO:

E|--3--5--7-----7-----------|
B|--5--5--9-----9-----------|
G|--5--6--9--7~-9--7~-------|
D|--5--7--9--7~-9--7~-------|
A|--3--7--7--7~-7--7~-7/15--|
E|-----5--------------------|


VERSE 1:

C     A     E
Say Chatterbox

C           A        E
I said you squawk a lot

C      A         E
C'mon give some lips

C      A     E
Yeah Chatterbox


RIFF 1 (Merge with last E Chord)

E|--7-----7--------------|
B|--9-----9--------------|
G|--9--7~-9--7~----------|
D|--9--7~-9--7~----------|
A|--7--7~-7--7~-7/15-----|
E|-----------------------|


VERSE 2:

C  A       E
I call you up

C          A      E
Don't give me no line

C       A         E
Seems like a fun night

C        A      RIFF 1
On the chatterline


SOLO:

G|A|E|E X3

G|A|RIFF1

E|--3--5-----------------------------------------------------------------------------------------|
B|--3--5---------------------------------------------12/17--16/17--16/17--16/17------------------|
G|--4--6--14b14b14b14b14b14b12------14b14b14b12----------------------------------14b14b14b12-----|
D|--5--7------------------------14---------------14----------------------------------------------|
A|--5--7-----------------------------------------------------------------------------------------|
E|--3--5-----------------------------------------------------------------------------------------|

    E
E|--7-----7--------------|
B|--9-----9--------------|
G|--9--7~-9--7~----------|
D|--9--7~-9--7~----------|
A|--7--7~-7--7~-7/15-----|
E|-----------------------|


VERSE 3:

C    A      E
All dressed up

C         A          E
I've got nowhere to go

C            A        E
I'm walking in your home

C       A    RIFF 1
On the telephone


VERSE 4:

C     A     E
Say Chatterbox

C          A         E
I said you squawk a lot

C      A            E
C'mon give me some lips

C     A      E
Yeah Chatterbox C'mon c'mon C'mon

C      A     E
Yeah Chatterbox C'mon C'mon

C     A      E
Yeah Chatterbox

C      A     RIFF 1
Say Chatterbox

SOLO AGAIN with a few changes

End on E
            
Submit corrections

↑ Back to top | Tablatures and chords for acoustic guitar and electric guitar, ukulele, drums are parodies/interpretations of the original songs. You may use it for private study, scholarship, research or language learning purposes only