Home » N » Newton Faulkner »

Newton Faulkner - Human Love Tabs

Artists:  A B C D E F G H I J K L M N O P Q R S T U V W X Y Z # 

Human Love Tabs

(ver. 1) Click to play this song!
Newton Faulkner

Tuning:CFCFGc

Entire song (bar the noodling) is palm muted, slaps on the strings will be marked as "x"

c|------x------------x------------x------------x-----------------------------|
G|---2--x----2-----3-x---3------2-x----2-----2-x----2------------------------|
F|---0--x----0-----0-x---0------0-x----0-----0-x----0------------------------|
C|------x------------x------------x------------x-----------------------------|
F|-0----x-0----0-2---x-2---2------x------------x-----------------------------|
C|------x------------x--------2---x--2---2-2---x--2---2----------------------|(x2)

c|------x------------x------------x------------x-----------------------------|
G|---5--x---5------5-x---5------2-x---2------2-x----2------------------------|
F|---0--x---0------0-x---0------0-x---0------0-x----0------------------------|
C|------x------------x------------x------------x-----------------------------|
F|-4----x-4----4-5---x-5---5-0----x-0----0-0---x--0---0----------------------|
C|------x------------x------------x------------x-----------------------------|(x2)

   Nothing's new not new to us
c|------x------------x------------x------------x-----------------------------|
G|---2--x----2-----3-x---3------2-x----2-----2-x----2------------------------|
F|---0--x----0-----0-x---0------0-x----0-----0-x----0------------------------|
C|------x------------x------------x------------x-----------------------------|
F|-0----x-0----0-2---x-2---2------x------------x-----------------------------|
C|------x------------x--------2---x--2---2-2---x--2---2----------------------|(x2)

c|------x------------x------------x------------x-----------------------------|
G|---5--x---5------5-x---5------2-x---2------2-x----2------------------------|
F|---0--x---0------0-x---0------0-x---0------0-x----0------------------------|
C|------x------------x------------x------------x-----------------------------|
F|-4----x-4----4-5---x-5---5-0----x-0----0-0---x--0---0----------------------|
C|------x------------x------------x------------x-----------------------------|(x2)

   Hiding from the cold..
c|------x------------x------------x------------x-----------------------------|
G|---7--x---7------7-x---7------9-x---9------9-x----9------------------------|
F|---5--x---5------6-x---6------7-x---7------8-x----8------------------------|
C|------x------------x------------x------------x-----------------------------|
F|-5----x-5----5/6---x-6---6/7----x-7----7/8---x--8---8----------------------|
C|------x------------x------------x------------x--------\(continued)---------|(x1)

   When i'm with you, I feel like taking on the weather.. 
c|------x------------x------------x------------x------------x----------------|
G|---2--x---2-----2--x---2------5-x---5------2-x----2-----2-x---2------------|
F|---0--x---0-----0--x---0------0-x---0------0-x----0-----0-x---0------------|
C|------x------------x------------x------------x------------x----------------|
F|------x------------x-------5----x-5----5-0---x--0---0-0---x-0--------------|
C|-2----x-2---2-2----x-2---2------x------------x------------x----------------|(x2)

c|------x------------x------------x------------x-----------------------------|
G|---2--x----2-----3-x---3------2-x----2-----2-x----2------------------------|
F|---0--x----0-----0-x---0------0-x----0-----0-x----0------------------------|
C|------x------------x------------x------------x-----------------------------|
F|-0----x-0----0-2---x-2---2------x------------x-----------------------------|
C|------x------------x--------2---x--2---2-2---x--2---2----------------------|(x1)

c|------x------------x------------x------------x-----------------------------|
G|---5--x---5------5-x---5------2-x---2------2-x----2------------------------|
F|---0--x---0------0-x---0------0-x---0------0-x----0------------------------|
C|------x------------x------------x------------x-----------------------------|
F|-4----x-4----4-5---x-5---5-0----x-0----0-0---x--0---0----------------------|
C|------x------------x------------x------------x-----------------------------|(x1)

Basically that's the jist of the entire song! ( the final two bars might be misplaced, sorry!)
If there's any problems or you've figured out the noodle please let me know, i'm currently working on it.

c|--------0--------------|
G|----0h2---2p0----------|
F|--------------0--------|
C|------------------0h2--|
F|--0-------------2------|
C|-----------------------|            
Submit corrections

↑ Back to top | Tablatures and chords for acoustic guitar and electric guitar, ukulele, drums are parodies/interpretations of the original songs. You may use it for private study, scholarship, research or language learning purposes only