Home » N » New Pornographers »

New Pornographers - Moves Tabs

Artists:  A B C D E F G H I J K L M N O P Q R S T U V W X Y Z # 

Moves Tabs

(ver. 1) Click to play this song!
New Pornographers
-------------------------------------------------------------------------------
                             Moves - The New Pornographers
-------------------------------------------------------------------------------

Tuning: Standard

Hey, so this is my first time ever tabbing a song, ever, and I'm only tabbing it because
no one else has, and this is a really cool song. So please ignore the cr*ppy
formatting, I have no idea how to do it. Any corrections, constructive criticisms,
and/or comments are welcome, you can send them to my email address.

So this is the intro riff, that is also is most of the song. You can experiment with
using the whole power chord, or muting the middle string, whichever sounds better to you...


Keep on repeating this riff, listen to the song to know when :)
e|-----------------------------------------------------------------------------------|
B|-----------------------------------------------------------------------------------|
G|------------ -3--3--3---4--4--4--6-------------------------------------6-----------|
D|-6---4---4----3--3--3---4--4--4--6-----8--6--6------6--6--6---8--8--8--6-----------|
A|-6---4---4----1--1--1---2--2--2--4-----8--6--6------6--6--6---8--8--8--4-----------|
E|-4---2---2-----------------------------6--4--4------4--4--4---6--6--6--------------|


Ok so there are also acoustic chords in the song.

At 0:47 - 0:50  its just a B major chord, listen to the song for the strumming pattern :)

The second time with acoustic chords (1:13 - 1:30) the chords are

B  E  B  F# E  B


Alright so I think that's the bulk of the song, enjoy!
            
Submit corrections

↑ Back to top | Tablatures and chords for acoustic guitar and electric guitar, ukulele, drums are parodies/interpretations of the original songs. You may use it for private study, scholarship, research or language learning purposes only