Home » N » New Politics »

New Politics - West End Kids Bass

Artists:  A B C D E F G H I J K L M N O P Q R S T U V W X Y Z # 

West End Kids Bass

(ver. 1) Click to play this song!
New Politics
Verse 1:

Walkin' slow down the freeway
Sarah says that it's not much further

G|--------------------------------------------------------------------------------------------------|
D|--------------------------------------------------------------------------------------------------|
A|--------------------------------------------------7--7--7--7--7--7--7--7--9--9--9--9--9--9--9--9--|
E|--5--5--5--5--5--5--5--5--5--5--5--5--7--7--7--7--------------------------------------------------|

Kiss the sunlight on her face
Let's say goodbye to this old and broken

G|--------------------------------------------------------------------------------------------------|
D|--------------------------------------------------------------------------------------------------|
A|--------------------------------------------------------------------------------------------------|
E|--5--5--5--5--5--5--5--5--5--5--5--5--7--7--7--7--9--9--9--9--9--9--9--9--7--7--7--7--7--7--7--7--|

Pre-Chorus 1:

Town, where we, fell in love
Dead, end streets, became a drug

G|--------------------------------------------------------------------------------------------------|
D|--------------------------------------------------------------------------------------------------|
A|--------------------------------------------------7--7-----7--7--7-----7--9--9-----9--9--9-----9--|
E|--5--5-----5--5--5-----5--5--5-----5--7--7-----7--------------------------------------------------|

Held, our voices like a prison cell
But now we're shoutin' from the rooftops

G|--------------------------------------------------------------------------------------------------|
D|--------------------------------------------------------------------------------------------------|
A|--------------------------------------------------------------------------------------------------|
E|--5--5-----5--5--5-----5--5--5-----5--7--7-----7--9--9-----9--9--9-----9--7--7-----7--7\---/------|

Chorus:

We are the kids that you never loved
We are the ones that will never grow up

G|-----------------------------------------------------9-----9-----9-----9-----11-----11-----11-----11--|
D|-----7-----7-----7-----7-----7-----7-----9-----9------------------------------------------------------|
A|--------------------------------------------------7-----7-----7-----7-----9------9------9------9------|
E|--5-----5-----5-----5-----5-----5-----7-----7---------------------------------------------------------|

We're just some kids from the West End
Oh-oh-oh-oh, oh-oh-oh-oh, oh-oh

G|-------------------------------------------------------------------------------------------------------|
D|-----7-----7-----7-----7-----7-----7-----9-----9-----11-----11-----11-----------9-----9-----9----------|
A|-------------------------------------------------------------------------------------------------------|
E|--5-----5-----5-----5-----5-----5-----7-----7-----9------9------9------9\---/7-----7-----7-----7\------|

We are the voices you never heard
We are the fire you never let burn

G|-----------------------------------------------------9-----9-----9-----9-----11-----11-----11-----11--|
D|-----7-----7-----7-----7-----7-----7-----9-----9------------------------------------------------------|
A|--------------------------------------------------7-----7-----7-----7-----9------9------9------9------|
E|--5-----5-----5-----5-----5-----5-----7-----7---------------------------------------------------------|

We're just some kids from the West End
Oh-oh-oh-oh, oh-oh-oh-oh, oh-oh

G|-------------------------------------------------------------------------------------------------------|
D|-----7-----7-----7-----7-----7-----7-----9-----9-----11-----11-----11-----------9-----9-----9----------|
A|-------------------------------------------------------------------------------------------------------|
E|--5-----5-----5-----5-----5-----5-----7-----7-----9------9------9------9\---/7-----7-----7-----7\------|

Verse 2:

Say goodbye to your old friends
Kickin' down all the rusty fences

G|--------------------------------------------------------------------------------------------------|
D|--------------------------------------------------------------------------------------------------|
A|--------------------------------------------------7--7--7--7--7--7--7--7--9--9--9--9--9--9--9--9--|
E|--5--5--5--5--5--5--5--5--5--5--5--5--7--7--7--7--------------------------------------------------|

Don't need much where we're goin'
Just a little bit of luck to get us

G|--------------------------------------------------------------------------------------------------|
D|--------------------------------------------------------------------------------------------------|
A|--------------------------------------------------------------------------------------------------|
E|--5--5--5--5--5--5--5--5--5--5--5--5--7--7--7--7--9--9--9--9--9--9--9--9--7--7--7--7--7--7--7--7--|

Pre-Chorus 2:

By, good-bye, we're on our way
You, and I, we've got it made

G|--------------------------------------------------------------------------------------------------|
D|--------------------------------------------------------------------------------------------------|
A|--------------------------------------------------7--7-----7--7--7-----7--9--9-----9--9--9-----9--|
E|--5--5-----5--5--5-----5--5--5-----5--7--7-----7--------------------------------------------------|

Throw, your gold into a wishin' well
And we'll be shoutin' from the rooftops

G|--------------------------------------------------------------------------------------------------|
D|--------------------------------------------------------------------------------------------------|
A|--------------------------------------------------------------------------------------------------|
E|--5--5-----5--5--5-----5--5--5-----5--7--7-----7--9--9-----9--9--9-----9--7--7-----7--7\---/------|

Chorus:

We are the kids that you never loved
We are the ones that will never grow up

G|-----------------------------------------------------9-----9-----9-----9-----11-----11-----11-----11--|
D|-----7-----7-----7-----7-----7-----7-----9-----9------------------------------------------------------|
A|--------------------------------------------------7-----7-----7-----7-----9------9------9------9------|
E|--5-----5-----5-----5-----5-----5-----7-----7---------------------------------------------------------|

We're just some kids from the West End
Oh-oh-oh-oh, oh-oh-oh-oh, oh-oh

G|-------------------------------------------------------------------------------------------------------|
D|-----7-----7-----7-----7-----7-----7-----9-----9-----11-----11-----11-----------9-----9-----9----------|
A|-------------------------------------------------------------------------------------------------------|
E|--5-----5-----5-----5-----5-----5-----7-----7-----9------9------9------9\---/7-----7-----7-----7\------|

We are the voices you never heard
We are the fire you never let burn

G|-----------------------------------------------------9-----9-----9-----9-----11-----11-----11-----11--|
D|-----7-----7-----7-----7-----7-----7-----9-----9------------------------------------------------------|
A|--------------------------------------------------7-----7-----7-----7-----9------9------9------9------|
E|--5-----5-----5-----5-----5-----5-----7-----7---------------------------------------------------------|

We're just some kids from the West End
Oh-oh-oh-oh, oh-oh-oh-oh, oh-oh

G|-------------------------------------------------------------------------------------------------------|
D|-----7-----7-----7-----7-----7-----7-----9-----9-----11-----11-----11-----------9-----9-----9----------|
A|-------------------------------------------------------------------------------------------------------|
E|--5-----5-----5-----5-----5-----5-----7-----7-----9------9------9------9\---/7-----7-----7-----7\------|

Bridge:

We are the kids, we are the kids
Oh-oh-oh
We are the kids, we are the kids
Oh-oh-oh

G|--------------------------------------------------------------------------------------------------|
D|--------------------------------------------------------------------------------------------------|
A|--------------------------------------------------7--7--7--7--7--7--7--7--9--9--9--9--9--9--9--9--|
E|--5--5--5--5--5--5--5--5--5--5--5--5--7--7--7--7--------------------------------------------------|

We are the kids, we are the kids
Oh-oh-oh
And we'll be shoutin' from the rooftops

G|--------------------------------------------------------------------------------------------------|
D|--------------------------------------------------------------------------------------------------|
A|--------------------------------------------------------------------------------------------------|
E|--5--5--5--5--5--5--5--5--5--5--5--5--7--7--7--7--9--9--9--9--9--9--9--9--7--7--7--7--7--7--7--7--|

Chorus:

We are the kids that you never loved
We are the ones that will never grow up

G|-----------------------------------------------------9-----9-----9-----9-----11-----11-----11-----11--|
D|-----7-----7-----7-----7-----7-----7-----9-----9------------------------------------------------------|
A|--------------------------------------------------7-----7-----7-----7-----9------9------9------9------|
E|--5-----5-----5-----5-----5-----5-----7-----7---------------------------------------------------------|

We're just some kids from the West End
Oh-oh-oh-oh, oh-oh-oh-oh, oh-oh

G|-------------------------------------------------------------------------------------------------------|
D|-----7-----7-----7-----7-----7-----7-----9-----9-----11-----11-----11-----------9-----9-----9----------|
A|-------------------------------------------------------------------------------------------------------|
E|--5-----5-----5-----5-----5-----5-----7-----7-----9------9------9------9\---/7-----7-----7-----7\------|

We are the voices you never heard
We are the fire you never let burn

G|-----------------------------------------------------9-----9-----9-----9-----11-----11-----11-----11--|
D|-----7-----7-----7-----7-----7-----7-----9-----9------------------------------------------------------|
A|--------------------------------------------------7-----7-----7-----7-----9------9------9------9------|
E|--5-----5-----5-----5-----5-----5-----7-----7---------------------------------------------------------|

We're just some kids from the West End
Oh-oh-oh-oh, oh-oh-oh-oh, oh-oh

G|-------------------------------------------------------------------------------------------------------|
D|-----7-----7-----7-----7-----7-----7-----9-----9-----11-----11-----11-----------9-----9-----9----------|
A|-------------------------------------------------------------------------------------------------------|
E|--5-----5-----5-----5-----5-----5-----7-----7-----9------9------9------9\---/7-----7-----7-----7\------|

We are the kids, we are the kids
Oh-oh-oh
We are the kids, we are the kids
Oh-oh-oh

G|-----------------------------------------------------9-----9-----9-----9-----11-----11-----11-----11--|
D|-----7-----7-----7-----7-----7-----7-----9-----9------------------------------------------------------|
A|--------------------------------------------------7-----7-----7-----7-----9------9------9------9------|
E|--5-----5-----5-----5-----5-----5-----7-----7---------------------------------------------------------|

We are the kids, we are the kids
Oh-oh-oh
And we'll be shoutin' from the rooftops

G|-------------------------------------------------------------------------------------------------------|
D|-----7-----7-----7-----7-----7-----7-----9-----9-----11-----11-----11-----------9-----9-----9----------|
A|-------------------------------------------------------------------------------------------------------|
E|--5-----5-----5-----5-----5-----5-----7-----7-----9------9------9------9\---/7-----7-----7-----7\------|

We are the voices you never heard
We are the fire you never let burn
We're just some kids from the West End
Oh-oh-oh-oh, oh-oh-oh-oh, oh-oh            
Submit corrections

↑ Back to top | Tablatures and chords for acoustic guitar and electric guitar, ukulele, drums are parodies/interpretations of the original songs. You may use it for private study, scholarship, research or language learning purposes only