Home » N » New Politics »

New Politics - Lovers In A Song Bass

Artists:  A B C D E F G H I J K L M N O P Q R S T U V W X Y Z # 

Lovers In A Song Bass

(ver. 1) Click to play this song!
New Politics
[Intro]

G|--------------------------------------------------|
D|--------------------------------------------------|
A|--4--------4--7--------7--------------------------|
E|--------------------------5--------5-----5-----4--|

[Verse 1]

Atlantic City's full of sinner saints
And Broadway's full of kids who stay out way too late
Silverlake has shakes I can't forget
Your lipstick on the scar of a cigarette

G|--------------------------------------------------|
D|--------------------------------------------------|
A|--4--------4--7--------7--------------------------|
E|--------------------------5--------5-----5-----4--|           (x4)

[Pre-Chorus 1]

I'm lost, I'm lost from finding
Is what you told me true?
The highway lights are blinding
Still I believe...

G|--------------------------------------------------|
D|--------------------------------------------------|
A|--2--------2--2-----2-----4--------4-----4--4--4--|
E|--------------------------------------------------|   (x3)

G|--------------------------------------------------|
D|--------------------------------------------------|
A|--2--------2--2-----2-----------------------------|
E|--------------------------4--------4--4-----4-----|

[Chorus]

Morning comes 
The sun is yours but I'll be gone
So dry your tears
We're still?
Lovers in a song

G|-----------------------------------------------------------------------|
D|-----------------------------------------------------------------------|
A|--4-----------4-----------------------------------2--------2--2--------|
E|-----------4--------4-----2--------2-----2--2--4--------------------2--|

G|-----------------------------------------------------------------------|
D|-----------------------------------------------------------4-----2-----|
A|-----------7--6-----------4--------4--------------------------------4--|
E|--0-----4-----------4--------------------7--5--0--2--------------------|

G|---------------------------------------------|
D|---------------------------------------------|
A|--2--------2--2------------------------------|
E|--------------------2-----/4--------4--4-----|

G|-----------------------|
D|--6-----4--------------|
A|--------------7-----6--|
E|-----------------------|

[Verse 2]

G|--------------------------------------------------|
D|--------------------------------------------------|
A|--4--------4--7--------7--------------------------|
E|--------------------------5--------5-----5-----4--|

Seen Lemmy at the rainbow holding court

G|--------------------------------------------------|
D|--------------------------------------------------|
A|--4--------4--7--------7--------------------------|
E|--------------------------5--------5-----5-----4--|

I've seen Memphis mamas waiting by the back door

G|--------------------------------------------------|
D|--------------------------------------------------|
A|--4--------4--7--------7-----------7--------------|
E|--------------------------5--------------5-----7--|

Saw London rain wash out a Brooklyn night
I've seen Copenhagen fading in my mind

G|--------------------------------------------------|
D|--------------------------------------------------|
A|--4--------4--7--------7--------------------------|
E|--------------------------5--------5-----5-----4--|           (X2)

[Pre-Chorus 2]

I'm lost, I'm lost from finding
Is what you told me true?
The highway lights are blinding
Still I believe...

G|--------------------------------------------------|
D|--------------------------------------------------|
A|--2--------2--2-----2-----4--------4-----4--4--4--|
E|--------------------------------------------------|   (x3)

G|--------------------------------------------------|
D|--------------------------------------------------|
A|--2--------2--2-----2-----------------------------|
E|--------------------------4--------4--4-----4-----|

It's such a shame that

G|-----------------------|
D|--6--6--6--9--6--6--9\-|
A|-----------------------|
E|-----------------------|

[Chorus]

Morning comes 
The sun is yours but I'll be gone
So dry your tears
We're still?
Lovers in a song

G|-----------------------------------------------------------------------|
D|-----------------------------------------------------------------------|
A|--4-----------4-----------------------------------2--------2--2--------|
E|-----------4--------4-----2--------2-----2--2--4--------------------2--|

G|-----------------------------------------------------------------------|
D|-----------------------------------------------------------4-----2-----|
A|-----------7--6-----------4--------4--------------------------------4--|
E|--0-----4-----------4--------------------7--5--0--2--------------------|

G|---------------------------------------------|
D|---------------------------------------------|
A|--2--------2--2------------------------------|
E|--------------------2-----/4--------4--4-----|

G|-----------------------|
D|--6-----4--------------|
A|--------------7-----6--|
E|-----------------------|

[Bridge]

I heard you say that, I heard you say

G|--------------------------------------------------|
D|-----------4--6--6--4--------------4--6--6--4-----|
A|--4--4--7--------------7--4--4--7--------------7--|
E|--------------------------------------------------|

I heard you say that lovers are blind

G|--------------------------------------------------|
D|--------2-----2--2--2--------------2--4--4--4--2--|
A|--------------------------------4-----------------|
E|--0--0-----0-----------0--2--2--------------------|

It's just the same, the same old game

G|--------------------------------------------------|
D|-----------4--6--6--4--------------4--6--6--4-----|
A|--4--4--7--------------7--4--4--7--------------7--|
E|--------------------------------------------------|

Where lovers love, our love is insane

G|--------------------------------------------------|
D|--------2-----2-----2----/4-----4-----4--6--4-----|
A|-----------------------------4-----4-----------7--|
E|--0--0-----0-----0—-------------------------------|

Hang up on me, girl, why start a fight?

G|-----------------4-----------------------4--6--6--|
D|-----------4--6-----6--4-----------4--6-----------|
A|--4--4--7-----------------4--4--7-----------------|
E|--------------------------------------------------|

Another phone I smash in the wall

G|--------------------------------------------------|
D|--------2-----------2--------------2--4--4--4--2--|
A|--------------------------------4-----------------|
E|--0--0-----0-----0-----0--2--2--------------------|

You've got me drinking, and now I'm thinking

G|-----------------4--6--------------------4--6-----|
D|-----------4--6--------------------4--6-----------|
A|--4--4--7-----------------4--4--7-----------------|
E|--------------------------------------------------|

Make-up sex when I see you again?

G|--------------------------------------------------|
D|--------2-----------2--------------2--4--4--4--2--|
A|--------------------------------4-----------------|
E|--0--0-----0-----0-----0--2--2--------------------|

G|--------------------------|
D|--------------------------|
A|--------------------------|
E|--4--4--4--4--4--4--4--4--|

It's such a shame that
Morning comes 
The sun is yours but I'll be gone
So dry your tears
We're still
Lovers in a song

G|--------------------------------------------------|
D|--------------------------------------------------|
A|--4--------4--------------------------------2-----|
E|-----------------7--5-----2--------2--2--4-----4--|

The sun is yours but I'll be gone
So dry your tears
We're still?
Lovers in a song

G|--------------------------------------------------|
D|--------------------------------------------------|
A|--2--------2--2--------------------7--6-----------|
E|--------------------2-----0-----4-----------4--7--|

G|--------------------------------------------------|
D|--------------------------4-----------------4-----|
A|--4--------4--4-----7--4-----------4-----------4--|
E|--------------------------------------2-----------|

G|--------------------------------------------------|
D|--------------------------------------------------|
A|--2--------2--2-----------------------------------|
E|--------------------2--0--4--------4--4-----------|

G|--------5-----9--------|
D|--6-----------------6--|
A|-----------------------|
E|-----------------------|

[Outro]

The truth about love it cannot be explained
But, girl, I'll stop the world if you ask me to

G|--------------------------------------------------|
D|--------------------------------------------------|
A|--4--------4--7--------7--------------------------|
E|--------------------------5-----------------------|

G|-------------------------------------------------|
D|-------------------------------------------------|
A|--4--------4--7-----------/12--------------------|
E|-------------------------------------------------|            
Submit corrections

↑ Back to top | Tablatures and chords for acoustic guitar and electric guitar, ukulele, drums are parodies/interpretations of the original songs. You may use it for private study, scholarship, research or language learning purposes only