» » »

New Politics - Everywhere I Go Kings And Queens Tabs

Artists:  A B C D E F G H I J K L M N O P Q R S T U V W X Y Z # 

Everywhere I Go Kings And Queens Tabs

(ver. 1) Click to play this song!
New Politics
 Rating:
4/5 (4 votes)

 Everywhere I Go Kings And Queens  lessons Tabs too difficult? Try these video lessons and learn fast
 
                -------------------------------------------------------------------------------
            Everywhere I Go Kings and Queens - New Politics
-------------------------------------------------------------------------------
Intro
e|--------------------------------------------------------------------------|
B|--------------------------------------------------------------------------|
G|--------------------------------------------------------------------------|
D|--------------------------------------------------------------------------|
A|--------------------------------------------------------------------------|
E|-10-10-10-10--9-9-9-9--7-7-7-7--5-5-5-5--3-3-3-3-3-3-3-3--5-5-5-5---------|
Verse
e|--------------------------------------------------------------------------|
B|--------------------------------------------------------------------------|
G|--------------------------------------------------------------------------|
D|--------------------------------------------------------------------------|
A|--------------------------------------------------------------------------|
E|-10-10-10-10--9-9-9-9--7-7-7-7--5-5-5-5--3-3-3-3-3-3-3-3--5-5-5-5---------|


Pre-Chorus
e|--------------------------------------------------------------------------|
B|--------------------------------------------------------------------------|
G|--------------------------------------------------------------------------|
D|--------------------------------------------------------------------------|
A|--------------------------------------------------------------------------|
E|-3-3-3-3-3-3-3-3--5-5-5-5-5-5-5-5--10-10-10-10--9-9-9-9-7-7-7-7--5-5-5-5--|

Chorus
e|--------------------------------------------------------------------------|
B|--------------------------------------------------------------------------|
G|--------------------------------------------------------------------------|
D|--------------------------------------------------------------------------|
A|--------------------------------------------------------------------------|
E|-10-10-10-10--9-9-9-9--7-7-7-7--5-5-5-5--3-3-3-3-3-3-3-3--5-5-5-5---------|            
Submit corrections


        Everywhere I Go Kings And Queens  lessons Hard to play? Try these video lessons and learn fast Everywhere I Go Kings And Queens  lessons
        
↑ Back to top | Tablatures and chords for acoustic guitar and electric guitar, ukulele, drums are parodies/interpretations of the original songs. You may use it for private study, scholarship, research or language learning purposes only