Home » N » New Politics »

New Politics - Die For You Bass

Artists:  A B C D E F G H I J K L M N O P Q R S T U V W X Y Z # 

Die For You Bass

(ver. 1) Click to play this song!
New Politics
Intro:

G|--------------------------------------------------------------------------------------------------|
D|--------------------------------------------------------------------------------------------------|
A|--------5--5--6--6--5--5--------5--5--6--6--5--5--------5--5--6--6--5--5--------5--5--6--6--5--5--|
E|--3--3--------------------3--3--------------------3--3--------------------3--3--------------------|

Verse 1:

She had me hooked like a psyched up junkie
A perfect dose, if you know what I mean
I ran a line like a toxic monkey
An appetite for her sweet medicine
You keep your eyes shut and you play with my mind
You let my thoughts rot and you keep them frozen in time
You seduce your victims, devour your pray
When you shoot them up, they can't escape

G|--------------------------------------------------------------------------------------------------|
D|--------------------------------------------------------------------------------------------------|
A|--------5--5--6--6--5--5--------5--5--6--6--5--5--------5--5--6--6--5--5--------5--5--6--6--5--5--|
E|--3--3--------------------3--3--------------------3--3--------------------3--3--------------------|   (x4)

Chorus (slide to 3rd):

Just look around
It's not a sound
But when it hits you
You know that you and I are lost
Beyond the rescue
So let it through
'Cause nothing matters anymore,
You know that I'd die for you

G|--------------------------------------------------------------------------------------------------|
D|--------------------------------------------------------------------------------------------------|
A|--------------------------------------------------------------------------------------------------|
E|--3--3--3--3--3--3--3--3--3--3--3--3--3--3--3--3--6--6--6--6--6--6--6--6--6--6--6--6--6--6--6--6--|           

G|--------------------------------------------------------------------------------------------------|
D|--------------------------------------------------------------------------------------------------|
A|--6--6--6--6--6--6--6--6--6--6--6--6--6--6--6--6--5--5--5--5--5--5--5--5--6--6--6--6--5--5--5--5--|
E|--------------------------------------------------------------------------------------------------|   (x2)

Do you know, do you know 
That I would have died?
Do you know 
That I would have died for you?

G|--------------------------------------------------------------------------------------------------|
D|--------------------------------------------------------------------------------------------------|
A|--------5--5--6--6--5--5--------5--5--6--6--5--5--------5--5--6--6--5--5--------5--5--6--6--5--5--|
E|--3--3--------------------3--3--------------------3--3--------------------3--3--------------------|

Verse 2:

She makes my heartbeat rattle and roll
A fatal touch that stings to the bone
Just like a snake, she'll poison my soul
I don't know, I don't know, I don't know what to do
You're just fueling my addiction
Fooling my prediction
Flipping my condition
You seduce your victims, devour your pray
When you shoot them up, they can't escape

G|--------------------------------------------------------------------------------------------------|
D|--------------------------------------------------------------------------------------------------|
A|--------5--5--6--6--5--5--------5--5--6--6--5--5--------5--5--6--6--5--5--------5--5--6--6--5--5--|
E|--3--3--------------------3--3--------------------3--3--------------------3--3--------------------|   (x4)

Chorus (slide to 3rd):


Just look around
It's not a sound
But when it hits you
You know that you and I are lost
Beyond the rescue
So let it through
'Cause nothing matters anymore,
You know that I'd die for you

G|--------------------------------------------------------------------------------------------------|
D|--------------------------------------------------------------------------------------------------|
A|--------------------------------------------------------------------------------------------------|
E|--3--3--3--3--3--3--3--3--3--3--3--3--3--3--3--3--6--6--6--6--6--6--6--6--6--6--6--6--6--6--6--6--|           

G|--------------------------------------------------------------------------------------------------|
D|--------------------------------------------------------------------------------------------------|
A|--6--6--6--6--6--6--6--6--6--6--6--6--6--6--6--6--5--5--5--5--5--5--5--5--6--6--6--6--5--5--5--5--|
E|--------------------------------------------------------------------------------------------------|   (x2)

Guitar Solo (replicates chorus):

G|--------------------------------------------------------------------------------------------------|
D|--------------------------------------------------------------------------------------------------|
A|--------------------------------------------------------------------------------------------------|
E|--3--3--3--3--3--3--3--3--3--3--3--3--3--3--3--3--6--6--6--6--6--6--6--6--6--6--6--6--6--6--6--6--|           

G|--------------------------------------------------------------------------------------------------|
D|--------------------------------------------------------------------------------------------------|
A|--6--6--6--6--6--6--6--6--6--6--6--6--6--6--6--6--5--5--5--5--5--5--5--5--6--6--6--6--5--5--5--5--|
E|--------------------------------------------------------------------------------------------------|


Bridge:

My pockets are broke
I got no platinum and gold
The police got the power so I've run out of hope
And the profit is so sweet, I'm paying for stones
If you don't understand,
I hope you die on your own

G|--------------------------------------------------------------------------------------|
D|--------------------------------------------------------------------------------------|
A|--------1--------------------1--------1-----------1--------------------1--------1-----|
E|--3--------------------3--------------------3--------------------3--------------------|

G|--------------------------------------------------------------------------------------|
D|--------------------------------------------------------------------------------------|
A|--------1--------------------1--------1-----------1-----------------------------------|
E|--3--------------------3--------------------3-----------------------------------------|

Chorus (slide to 3rd): 

Just look around
It's not a sound
But when it hits you
You know that you and I are lost
Beyond the rescue
So let it through
'Cause nothing matters anymore,
You know that I'd die for you
Nothing matters anymore,
You know I would die for you

G|--------------------------------------------------------------------------------------------------|
D|--------------------------------------------------------------------------------------------------|
A|--------------------------------------------------------------------------------------------------|
E|--3--3--3--3--3--3--3--3--3--3--3--3--3--3--3--3--6--6--6--6--6--6--6--6--6--6--6--6--6--6--6--6--|           

G|--------------------------------------------------------------------------------------------------|
D|--------------------------------------------------------------------------------------------------|
A|--6--6--6--6--6--6--6--6--6--6--6--6--6--6--6--6--5--5--5--5--5--5--5--5--6--6--6--6--5--5--5--5--|
E|--------------------------------------------------------------------------------------------------|   (x3)

Do you know, do you know
That I would have died?
Do you know that I would have died for you?

G|--------------------------------------------------------------------------------------|
D|--------------------------------------------------------------------------------------|
A|--------5--5--6--6--5--5--------5--5--6--6--5--5--------5--5--6--6--5--5--------------|
E|--3--3--------------------3--3--------------------3--3--------------------3-----3--3--|            
Submit corrections

↑ Back to top | Tablatures and chords for acoustic guitar and electric guitar, ukulele, drums are parodies/interpretations of the original songs. You may use it for private study, scholarship, research or language learning purposes only