» » »

Nevershoutnever - Your Biggest Fan Tabs

Artists:  A B C D E F G H I J K L M N O P Q R S T U V W X Y Z # 

Your Biggest Fan Tabs

(ver. 1) Click to play this song!
Nevershoutnever
 Rating:
4/5 (4 votes)

 Your Biggest Fan lessons Tabs too difficult? Try these video lessons and learn fast
 
                So here is Chris's newest demo Yourbiggestfan.

Same as every other song of his, just a few chords.


So it goes I'm a real big fan of yours........

E--0---------------------------3-----------------|
G--1---------------------------3-----------------|
D--0--0-0-0-0-0-0-0------------0---0-0-0-0-0-0-0-|
B--2--2-2-2-2-2-2-2------------0---0-0-0-0-0-0-0-|
A--3--3-3-3-3-3-3-3------------2---2-2-2-2-2-2-2-|
e------------------------------3---3-3-3-3-3-3-3-|
      x x x x x x x                x x x x x x x


But girl wasn't a joke when you kissed me..........
E-----1--------------------------0------------3-|
B-----1--------------------------1------------3-|
G-----2--2-2-2-2-2-2-2-----------0--0-0-0-----0-|
D-----3--3-3-3-3-3-3-3-----------2--2-2-2-----0-|
A-----3--3-3-3-3-3-3-3-----------3--3-3-3-----2-|
e-----1--1-1-1-1-1-1-1------------------------3-|

         x x x x x x x              x x x

Da da da da da

E--1--1-|
B--1--1-|
G--2--2-|
D--3--3-|
A--3--3-|
e--1--3-|

Chorus:

E--0--0--0---00-----3--3--3---33-------1--1--1--11------0--0-00---3--3-33-|
B--1--1--1---11-----3--3--3---33-------1--1--1--11------1--1-11---3--3-33-|
G--0--0--0---00-----0--0--0---00-------2--2--2--22------0--0-00---0--0-00-|
D--2--2--2---22-----0--0--0---00-------3--3--3--33------2--2-22---0--0-00-|
A--3--3--3---33-----2--2--2---22-------3--3--3--33------3--3-33---2--2-22-|
E-------------------3--3--3---33-------1--1--1--11----------------3--3-33-|


Bridge:

(slow strum)
E--0----3-----1-----0-----3-|
B--1----3-----1-----1-----3-|
G--0----0-----2-----0-----0-|
D--2----0-----3-----2-----0-|
A--3----2-----3-----3-----2-|
E-------3-----1-----------3-|


lyrics:

I'm a real big fan of yours
But I'm quite the joke to you
But girl it wasn't a joke when you
Kissed me in your room and replied
"I love you too"

I'm a little bit insecure
But see I'm workin it out
Workin it out you're so damn hard
When you're alone

Sha da da da da da da da da da
Da da da da da da da da da

I am running out of words
To say to you, wondering why I'm
Wasting my time
Thinking back and wondering why
I'm such a fool for loving you

And I got to the point where
All I wanted was for us to make up
But it's not that easy
Cause girl you move on so quickly
Keeping a boy like me at the edge of his seat

And I know everything you do
Is all about your perfect image
Well I hope this song
It helps your image

Sha da da da da da da da da da
Da da da
I'm so over you now

I am running out of words
To say to you, wondering why I'm
Wasting my time
Thinking back and wondering why
I'm such a fool for loving you

And I was one who thought I was strong
Well you proved me wrong
Now I'm singing along to every song
On the radio I don't wanna go
Come on baby tell me
Something I wanna know
And I don't wanna see what's on my mind
Because this lack of motivation is
Taking over my time and I'm sick of trying

All together now!

I am running out of words
To say to you, wondering why I'm
Wasting my time
Thinking back and wondering why
I'm such a fool for loving you
            
Submit corrections


        Your Biggest Fan lessons Hard to play? Try these video lessons and learn fast Your Biggest Fan lessons
        
↑ Back to top | Tablatures and chords for acoustic guitar and electric guitar, ukulele, drums are parodies/interpretations of the original songs. You may use it for private study, scholarship, research or language learning purposes only