» » »

Nevershoutnever - Simple Enough Tabs

Artists:  A B C D E F G H I J K L M N O P Q R S T U V W X Y Z # 

Simple Enough Tabs

(ver. 1) Click to play this song!
Nevershoutnever
 Rating:
4/5 (4 votes)

 Simple Enough lessons Tabs too difficult? Try these video lessons and learn fast
 
                Simple Enough By Never Shout Never
The Summer EP
Standard Tuning



Intro
    C  F   C  F   C  F   C
e|--0--1---0--1---0--1---0-------|
B|---1--1-1-1--1-1-1--1-1--------|
G|----0--2---0--2---0--2---------|
D|-------------------------------|
A|--3------3------3------3-------|
E|-----1------1------1-----------|


Verse:

    C  F   C  F   C  F   C
e|--0--1---0--1---0--1---0-------|
B|---1--1-1-1--1-1-1--1-1--------|
G|----0--2---0--2---0--2---------|
D|-------------------------------|
A|--3------3------3------3-------|
E|-----1------1------1-----------|
If I was a sailor
I'd sail the seven seas
To tell you baby I dont want you to leave

    C  F   C  F   C  F   C
e|--0--1---0--1---0--1---0-------|
B|---1--1-1-1--1-1-1--1-1--------|
G|----0--2---0--2---0--2---------|
D|-------------------------------|
A|--3------3------3------3-------|
E|-----1------1------1-----------|
You see this world is such a sad place
And without your pretty face
Im sure its gonna wind up much worse

e|--------------|
B|--------------|
G|--------------|
D|--------------|
A|--------------|
E|-----12/3-----|


Pre-chorus:

    G                                   C
And I know that you'll see someday that I cant live without you
      F                             G
And I know what I say is true cause i'm still stuck on you girl


Chorus:

C                                        F
Im in love from the first time I laid my eyes on you
                 C
A-shoo-do-do-do-do-do
                     F      G
Theres nothing I can do
    C                                        F
And Im in love from the first time I laid my lips on yours
                         C
Now youre walking out my door
                         F     G
And theres nothing I can do


Verse 2:

    C  F   C  F   C  F   C
e|--0--1---0--1---0--1---0-------|
B|---1--1-1-1--1-1-1--1-1--------|
G|----0--2---0--2---0--2---------|
D|-------------------------------|
A|--3------3------3------3-------|
E|-----1------1------1-----------|  
And if I could explore the world
Id bring you along
Wed go from New York to Timbuktu

    C  F   C  F   C  F   C
e|--0--1---0--1---0--1---0-------|
B|---1--1-1-1--1-1-1--1-1--------|
G|----0--2---0--2---0--2---------|
D|-------------------------------|
A|--3------3------3------3-------|
E|-----1------1------1-----------|
But truly I am set right here at Dennys
Drinking coffee and sharing a cigarette

e|--------------|
B|--------------|
G|--------------|
D|--------------|
A|--------------|
E|-----12/3-----|


Pre-chorus:

    G                                   C
And I know that you'll see someday that I cant live without you
      F                             G
And I know what I say is true cause i'm still stuck on you girl


Chorus:

C                                        F
Im in love from the first time I laid my eyes on you
                 C
A-shoo-do-do-do-do-do
                     F      G
Theres nothing I can do
    C                                       F
And Im in love from the first time I laid my lips on yours
                         C
Now youre walking out my door
                         F     G
And theres nothing I can do
                 
                 C
I'm in love with you
            
Submit corrections


        Simple Enough lessons Hard to play? Try these video lessons and learn fast Simple Enough lessons
        
↑ Back to top | Tablatures and chords for acoustic guitar and electric guitar, ukulele, drums are parodies/interpretations of the original songs. You may use it for private study, scholarship, research or language learning purposes only