» » »

Nevershoutnever - Jane Doe Tabs

Artists:  A B C D E F G H I J K L M N O P Q R S T U V W X Y Z # 

Jane Doe Tabs

(ver. 1) Click to play this song!
Nevershoutnever
 Rating:
4/5 (4 votes)

 Jane Doe lessons Tabs too difficult? Try these video lessons and learn fast
 
                -------------------------------------------------------------------------------
-------------------------------------------------------------------------------

You may think me lazy, but see Christofer Drew's video for timing:

I've included the chords that make up these "finger picks" to make playing it a little
You don't have to use them, (except for the last chord, of course!) but it might help

Tuning: Standard

Capo: 7th fret

   D                                       |A
    JaneDoe I don't think I know you but I |Know fo' sho that you are beautiful
e|----2---2---2---2------------------------|--0---0---0---0------------------|
B|----3---3---3---3------------------------|--2---2---2---2------------------|
G|------2-------2--------------------------|---------------------------------|
D|--0-------0------------------------------|----2-------2--------------------|
A|-----------------------------------------|0-------0------------------------|
E|-----------------------------------------|---------------------------------|


  D                    |A
  So baby let me know  |Your name        |Damn what's her
e|--2---2---2---2------|--0---0---0---0--|-----------------------------------|
B|--3---3---3---3------|--2---2---2---2--|-----------------------------------|
G|----2-------2--------|-----------------|-----------------------------------|
D|0-------0------------|----2-------2----|-----------------------------------|
A|---------------------|0-------0--------|0-2-4------------------------------|
E|---------------------|-----------------|-----------------------------------|


  D                                              |A
  Name 'Cause I'm overly attracted and terribly  |Convinced and she could be my princess
I could be her
e|--2---2---2---2--------------------------------|--0---0---0---0-------------|
B|--3---3---3---3--------------------------------|--2---2---2---2-------------|
G|----2-------2----------------------------------|----------------------------|
D|0-------0--------------------------------------|----2-------2---------------|
A|-----------------------------------------------|0-------0-------------------|
E|-----------------------------------------------|----------------------------|

  G                        |A                           |D
  Prince     Felt that way |Since     |Since I saw Jane  Doe *ukulele solo*
e|--3---3---3---3----------|--0---0---|-----------------|--2---2---2---2-----|
B|--0---0---0---0----------|--2---2---|-----------------|--3---3---3---3-----|
G|-------------------------|----------|-----------------|----2-------2-------|
D|-------------------------|----2-----|-----------------|0-------0-----------|
A|----2-------2------------|0-------0-|0-2-4------------|--------------------|
E|3-------3----------------|----------|-----------------|--------------------|


 |A               |D               |A
  *ukulele solo*  |*ukulele solo*  |*ukulele solo* |*ukulele solo*
e|--0---0---0---0-|--2---2---2---2-|--0---0--------|-------------------------|
B|--2---2---2---2-|--3---3---3---3-|--2---2--------|-------------------------|
G|----------------|----2-------2---|---------------|-------------------------|
D|----2-------2---|0-------0-------|----2----------|-------------------------|
A|0-------0-------|----------------|0-------0------|0-2-4--------------------|
E|----------------|----------------|---------------|-------------------------|


  D                                        |A
    JaneDoe I don't think I know you but I |Know fo' sho that I can get to know you
e|----2---2---2---2------------------------|--0---0---0---0------------------|
B|----3---3---3---3------------------------|--2---2---2---2------------------|
G|------2-------2--------------------------|---------------------------------|
D|--0-------0------------------------------|----2-------2--------------------|
A|-----------------------------------------|0-------0------------------------|
E|-----------------------------------------|---------------------------------|


 D                     |A
  If you let me know   |Your name        |Damn what's her
e|--2---2---2---2------|--0---0---0---0--|-----------------------------------|
B|--3---3---3---3------|--2---2---2---2--|-----------------------------------|
G|----2-------2--------|-----------------|-----------------------------------|
D|0-------0------------|----2-------2----|-----------------------------------|
A|---------------------|0-------0--------|0-2-4------------------------------|
E|---------------------|-----------------|-----------------------------------|


  D                                              |A
  Name 'Cause I'm overly attracted and terribly  |Convinced and she could be my princess
I could be her
e|--2---2---2---2--------------------------------|--0---0---0---0-------------|
B|--3---3---3---3--------------------------------|--2---2---2---2-------------|
G|----2-------2----------------------------------|----------------------------|
D|0-------0--------------------------------------|----2-------2---------------|
A|-----------------------------------------------|0-------0-------------------|
E|-----------------------------------------------|----------------------------|

  G                        |A
  Prince     Felt that way |Since     |Since I saw Jane
e|--3---3---3---3----------|--0---0---|--------------------------------------|
B|--0---0---0---0----------|--2---2---|--------------------------------------|
G|-------------------------|----------|--------------------------------------|
D|-------------------------|----2-----|--------------------------------------|
A|----2-------2------------|0-------0-|0-2-4---------------------------------|
E|3-------3----------------|----------|--------------------------------------|

  Em                              |Emaj7
  Doe She's everything I want and |More She's everything I want for
e|--------------------------------|------------------------------------------|
B|---0---0---0---0----------------|--0---0---0---0---------------------------|
G|---0---0---0---0----------------|--0---0---0---0---------------------------|
D|-----2-------2------------------|1-------1---------------------------------|
A|-2-------2----------------------|----2-------2-----------------------------|
E|--------------------------------|------------------------------------------|


  C                                        |A
  Sure She's everything that I want and to |Adore! Well baby I
e|-----------------------------------------|--0---0---0---0------------------|
B|--1---1---1---1--------------------------|--2---2---2---2------------------|
G|--0---0---0---0--------------------------|---------------------------------|
D|----2-------2----------------------------|----2-------2--------------------|
A|3-------3--------------------------------|0-------0------------------------|
E|-----------------------------------------|---------------------------------|


 D                                   |A
  I'm overly attracted and terribly  |Convinced and she could be my lover but I think I 
my
e|--2---2---2---2--------------------|--0---0---0---0------------------------|
B|--3---3---3---3--------------------|--2---2---2---2------------------------|
G|----2-------2----------------------|---------------------------------------|
D|0-------0--------------------------|----2-------2--------------------------|
A|-----------------------------------|0-------0------------------------------|
E|-----------------------------------|---------------------------------------|


 G                         |A                        |D
  Chance     You had me at |First glance |Oh my Jane |Doe
e|--3---3---3---3----------|--0---0------|-----------|2----------------------|
B|--0---0---0---0----------|--2---2------|-----------|3----------------------|
G|-------------------------|-------------|-----------|2----------------------|
D|-------------------------|----2--------|-----------|-----------------------|
A|----2-------2------------|0-------0----|0-2-4------|-----------------------|
E|3-------3----------------|-------------|-----------|-----------------------|


| /  slide up
| \  slide down
| h  hammer-on
| p  pull-off
| ~  vibrato
| +  harmonic
| x  Mute note
===============================================================================
            
Submit corrections


        Jane Doe lessons Hard to play? Try these video lessons and learn fast Jane Doe lessons
        
↑ Back to top | Tablatures and chords for acoustic guitar and electric guitar, ukulele, drums are parodies/interpretations of the original songs. You may use it for private study, scholarship, research or language learning purposes only