» » »

Neutral Milk Hotel - My Dreamgirl Dont Exist Tabs

Artists:  A B C D E F G H I J K L M N O P Q R S T U V W X Y Z # 

My Dreamgirl Dont Exist Tabs

(ver. 1) Click to play this song!
Neutral Milk Hotel
 Rating:
2.9/5 (26 votes)

 My Dreamgirl Dont Exist  lessons Tabs too difficult? Try these video lessons and learn fast
 
                For the Verses(strum as needed):
You can also substitute A for the last chord. Whatever you prefer. 
e|--0-----x-----x-----0----------------------------------------------------------|
B|--0-----0-----0-----5----------------------------------------------------------|
G|--1-----4-----6-----6----------------------------------------------------------|
D|--2-----4-----6-----7----------------------------------------------------------|
A|--2-----2-----4-----0----------------------------------------------------------|
E|--0-----x-----x-----x----------------------------------------------------------|

Into the chorus:
e|--0----0-----2----------------------------------------------------------------|
B|--0----2-----4----------------------------------------------------------------|
G|--1----2-----4----------------------------------------------------------------|
D|--2----2-----4----------------------------------------------------------------|
A|--2----0-----2----------------------------------------------------------------|
E|--0----x-----2----------------------------------------------------------------|

Chorus
e|--0-----2-----0-----0-----2------------------------------------------------|
B|--2-----4-----0-----2-----4------------------------------------------------|
G|--2-----4-----1-----2-----4------------------------------------------------|
D|--2-----4-----2-----2-----4------------------------------------------------|
A|--0-----2-----2-----0-----2------------------------------------------------|
E|--x-----2-----0-----x-----2------------------------------------------------|

At the end, strum last chord (B) of the chorus for "she goes..." line. Then end on 
E chord for "never be afraid"

Lyrics:
My dream girl don't exist
And at the age of five she slit her wrist
She didn't know that I'd be hanging around
So her parents buried her in the ground
And this day I can still hear the sound
Of a life in outer space

My dream girl don't exist 
It just you and I and this TV
And this illness seems to feel so strange
Like a henchman that's about to hang
The moon up like a ball and chain
And set its sands ablaze

And the weight is waiting off
Feel the world so real and strong 

My dream girl don't exist
Just a photograph in a history book
And I believe she had a voice and name
Three children on the coast of Maine
And her life was in a hurricane
Of love and real embrace

My dream girl don't exist
And at the age of five she slit her wrist
She didn't know that I'd be hanging around
So one day she took a stroll to town
And walked in front of a greyhound bound
For New York Central State

And the weight is waiting off
And the weight is waiting off
Feel the world so real and strong
She goes, and now she knows
She'll never be afraid            
Submit corrections


        My Dreamgirl Dont Exist  lessons Hard to play? Try these video lessons and learn fast My Dreamgirl Dont Exist  lessons
        
↑ Back to top | Tablatures and chords for acoustic guitar and electric guitar, ukulele, drums are parodies/interpretations of the original songs. You may use it for private study, scholarship, research or language learning purposes only