» » »

Nesian Mystik - Hectic Tabs

Artists:  A B C D E F G H I J K L M N O P Q R S T U V W X Y Z # 

Hectic Tabs

(ver. 1) Click to play this song!
Nesian Mystik
 Rating:
4/5 (4 votes)

 Hectic lessons Tabs too difficult? Try these video lessons and learn fast
 
                nesian mystik
hectic
polysaturated


standard tuning

Please rate this tab

main
------------------------------------------------------------
------------------------------------------------------------
------------------------------------------------------------
------------------------------------------------------------
--4-4-4-4-2-0-2-0---2-2-2-2---2-2-2-2-----------------------
------------------------------------------------------------
  * * * * * * * *   * * * *   * * * *


--------------------     -----------------------------------
--------------------     -----------------------------------
--------------------     --13-11-----------------13---------
--------------------     --------14-11--11-13-13------------
--4-4-4-4-2-0-2-0---     -----------------------------------
--------------------     -----------------------------------
  * * * * * * * *           *  *  *  *   *  *  *  *

--------------------     -----------------------------------
--------------------     -----------------------------------
--------------------     -----------------------------------
--------------------     --11-11-14-13-13-14-13-14-13-9-11--
--2-2-2-2---2-2-2-2-     -----------------------------------
--------------------     -----------------------------------
  * * * *   * * * *         *  *  *  *  *  *  *  *  * *  *

thats it!
            
Submit corrections


        Hectic lessons Hard to play? Try these video lessons and learn fast Hectic lessons
        
↑ Back to top | Tablatures and chords for acoustic guitar and electric guitar, ukulele, drums are parodies/interpretations of the original songs. You may use it for private study, scholarship, research or language learning purposes only