» » »

Neil Zaza - All My Life Tabs

Artists:  A B C D E F G H I J K L M N O P Q R S T U V W X Y Z # 

All My Life Tabs

(ver. 1) Click to play this song!
Neil Zaza
 Rating:
4.2/5 (5 votes)


 All My Life lessons Tabs too difficult? Try these video lessons and learn fast
 
                Neil zaza all my life. tuning standard rate and comment :)

~ vibrito
* pich harmonic
b bend
p pull off
h hammer on
/ slide up
\ slide down

lead guitar
    ~  ~  ~                                                  ~  ~          ~
e|------------------------------------------------------------------20-20----|
b|/18-18-18-17-------------------------------------17-18-20-22-22---------20-|
g|------------------------------------------17-19----------------------------|
d|---------------------------------17-19-20----------------------------------|
a|------------------------17-18-20-------------------------------------------|
e|---------------17-18-20----------------------------------------------------|

                                      ~
e|-----------------------------20-20-22----20-20\----|
b|-/16b(17)-16b-16b-16-18-20-22----------------------|
g|---------------------------------------------------|
d|---------------------------------------------------|
a|---------------------------------------------------|
e|---------------------------------------------------|

    Clean sound
e|------------------------------------------------------|
b|------------------------------------------------------|
g|-7-5-3-5---/7p5h7p5-3-5-----3-5-3-5b(7)-5p3-----------|
d|---------------------------------------------5-5------|
a|------------------------------------------------------|
e|------------------------------------------------------|


e|-----------------------------------------|
b|-----------------------------------------|
g|-/7p5h7p5-3-5-----3-5/7-5-3-5-7-5-3------|
d|----------------5------------------------|
a|-----------------------------------------|
e|-----------------------------------------|

Distortion and heavy phaser
                             *
e|--------------------------------------------|
b|--------------------------------------------|
g|-7p5h7p5-3-5---7p5h7p5-3-5-5b(7)-5-3--------|
d|--------------------------------------5-5---|
a|--------------------------------------------|
e|--------------------------------------------|


e|---------------------15-17-18-17h18-17-15---------------|
b|-15-13-15-13\11-13------------------------18-20-18-20---|
g|--------------------------------------------------------|
d|--------------------------------------------------------|
a|--------------------------------------------------------|
e|--------------------------------------------------------|


e|-------------------------------------------------------------------|
b|-------------------------------------------10-11-10----------------|
g|-3-5-7-8-10-5-7-7b(8)-7-5-3-3---3-5-7-8-10----------12--9h10-9h10--|
d|-------------------------------------------------------------------|
a|-------------------------------------------------------------------|
e|-------------------------------------------------------------------|


e|----------------------------20-18-18---18-20-20b(22)-20b(22)-20-18-18-20---|
b|-11-13-15-16/18-13-15-16-15------------------------------------------------|
g|---------------------------------------------------------------------------|
d|---------------------------------------------------------------------------|
a|---------------------------------------------------------------------------|
e|---------------------------------------------------------------------------|

 Clean sound
e|-------------------------------------------|
b|--10h11-10-6-3-----------------------------|
g|----------------3-5-7-8-10-5-7-5-3-3-------|
d|-------------------------------------------|
a|-------------------------------------------|
e|-------------------------------------------|

 Distortion                                  sweep
e|-----------------------------------------------15-17-17b(18)-17-15-------|
b|--15-13-15-13\11-13---15-13-15-13\11-13------16--------------------16----|
g|-------------------------------------------15------------------------15--|
d|-------------------------------------------------------------------------|
a|-------------------------------------------------------------------------|
e|-------------------------------------------------------------------------|

                              sweep
e|-------------------------------15-17-18--15-17-18-20-18-20-20b(22)-20b(22--|
b|--------18-16-18-16-15-13-----16-------------------------------------------|
g|--10-12---------------------15---------------------------------------------|
d|---------------------------------------------------------------------------|
a|---------------------------------------------------------------------------|
e|---------------------------------------------------------------------------|


e|-20-18-20|
b|---------|
g|---------|
d|---------|
a|---------|
e|---------|

e|-------------------------------------------------------------------|
b|-------------------------------------------10-11-10----------------|
g|-3-5-7-8-10-5-7-7b(8)-7-5-3-3---3-5-7-8-10----------12--9h10-9h10--|
d|-------------------------------------------------------------------|
a|-------------------------------------------------------------------|
e|-------------------------------------------------------------------|


e|----------------------------20-18-18---18-20-20b(22)-20b(22)-20-18-18-20---|
b|-11-13-15-16/18-13-15-16-15------------------------------------------------|
g|---------------------------------------------------------------------------|
d|---------------------------------------------------------------------------|
a|---------------------------------------------------------------------------|
e|---------------------------------------------------------------------------|


And that is all i know, then the song kicks into the solo but this will get you started.
            
Submit corrections



        All My Life lessons Hard to play? Try these video lessons and learn fast All My Life lessons
        
↑ Back to top | Tablatures and chords for acoustic guitar and electric guitar, ukulele, drums are parodies/interpretations of the original songs. You may use it for private study, scholarship, research or language learning purposes only