Home » N » Neil Young »

Neil Young - Timberline Chords

Artists:  A B C D E F G H I J K L M N O P Q R S T U V W X Y Z # 

Timberline Chords

(ver. 1) Click to play this song!
Neil Young
[Intro]
  Em                 C                Em               Em               Em               Em
e|----0-------------|-------------0--|--------------0-|--------------0-|--------------0-|--------------0-|
B|----0-------------|-----1-------0--|--------------0-|--------------0-|--------------0-|--------------0-|
G|----0-------------|-----0-------0--|--------------0-|--------------0-|--------------0-|--------------0-|
D|------------2---0-|--2----2-----2--|----2-0-------2-|----2-0-------2-|----2-0-------2-|----2-0-------2-|
A|--2---2---2-------|3----------2-2-2|--2-----2---2-2-|--2-----2---2-2-|--2-----2---2-2-|--2-----2---2-2-|
E|0-------0-----0---|---------0------|0---------0-----|0---------0-----|0---------0-----|0---------0-----|
 
[Verse 1]
Em                                C               Em
Well I saw you on the timberline, happy with your tools (Timberline)    (Timberline)
  Em                      C                   Em
I know you seen the sign, I know you know the rules (Timberline)    (Timberline)
Em                   C               Em
p**s on my machine , all of them are legal  (Timberline)    (Timberline)
Em                       C                  Em
Pokey was not mad, "I’ll blow your head off"    (Timberline)    (Timberline)
 
[Bridge]
Am                       Am7      G*
Fooled by the Lord,
Am                       Am7      G*
Fooled by his Grace
    Em
Who might lead to Jesus
Am                       Am7      G*
Took away my livin'
Am                       Am7
Took away my faith       
G*  Em
Oh Lord
 
[Verse 2]
Em                                    C               Em
Well it really did it to me when they closed down the track    (Timberline)    (Timberline)
Em                          C                  Em
Left those babies standing, wrenched me in the gut   (Timberline)    (Timberline)
        Em                            C               Em
Well it really did it to me when they closed down the track    (Timberline)    (Timberline)
 
Em      Em
 
[Bridge]
Am                          Am7      G*
Finger on the iron
Am                          Am7      G*
Got you in my sights
Em
Put my faith in Jesus
Am                          Am7      G*
Going back to school
    Am                      Am7
To show them what I learned
G*   Em
Your Law!
 
[Verse 3]
        Em                            C               Em
Well it really did it to me when they closed down the track   (Timberline)    (Timberline)
Em                          C                  Em
Left those babies standing, wrenched me in the gut   (Timberline)    (Timberline)
        Em                           C               Em
Well it really didn't tune when they closed down the track   (Timberline)    (Timberline)
 
[Bridge]
Am                       Am7      G*
Fooled by the Lord,
Am                       Am7      G*
Fooled by his Grace
    Em
Who might lead to Jesus
Am                       Am7      G*
Took away my livin'
Am                       Am7
Took away my faith       
G*  Em
Oh Lord,     yeh!
 
[Instrumental Outro]
  Em                 C                Em               Em               Em               Em
e|----0-------------|-------------0--|--------------0-|--------------0-|--------------0-|--------------0-|
B|----0-------------|-----1-------0--|--------------0-|--------------0-|--------------0-|--------------0-|
G|----0-------------|-----0-------0--|--------------0-|--------------0-|--------------0-|--------------0-|
D|------------2---0-|--2----2-----2--|----2-0-------2-|----2-0-------2-|----2-0-------2-|----2-0-------2-|
A|--2---2---2-------|3----------2-2-2|--2-----2---2-2-|--2-----2---2-2-|--2-----2---2-2-|--2-----2---2-2-|
E|0-------0-----0---|---------0------|0---------0-----|0---------0-----|0---------0-----|0---------0-----|
            
Submit corrections

↑ Back to top | Tablatures and chords for acoustic guitar and electric guitar, ukulele, drums are parodies/interpretations of the original songs. You may use it for private study, scholarship, research or language learning purposes only