Home » N » Neil Young »

Neil Young - Through My Sails Tabs

Artists:  A B C D E F G H I J K L M N O P Q R S T U V W X Y Z # 

Through My Sails Tabs

(ver. 1) Click to play this song!
Neil Young
Intro:
    G             Em
e|--3----3--3-----0----0---------|
B|--0----1--0-----1----0---------|
G|--0----0--0-2-0-0----0----0----|
D|--0----0--0-0-0-2----2----2----|
A|--2--2-2--2-2-2-2--2-2--2-2-2--|
E|--3--3-3--3-3-3-0--0-0--0-0-0--|

    C/G           D
e|--0-------------2---2-2-2-2-2--|
B|--1----0--------3---3-3-3-3-3--|
G|--0----0----0---2---2-4-2-2-2--|
D|--2----2----2---0---0-0-0-4-0--|
A|--3--3-3--3-3------------------|
E|--3--3-3--3-3------------------|

Verse (as intro):
G                      Em               C/G        D 
Still glaring from the city lights into paradise I soared;
G         Em            C/G           D 
Unable to come down for reasons I'd ignored.

Chorus:
G               Gsus4 G
Total Confusion,
Cmaj7       C
Disillusion,
Am                  D 
  New things I'm knowing.

Fill:
    G        Cadd9   Am            D
e|--3--------0-------0---0-0-0-0---2------|
B|--0--------3-------1---1-3-1-0---3------|
G|--0--------0-------2---2-2-2-2---0h2----|
D|--0--------2-------2---2-2-2-2---0------|
A|--2--------3-------0---0-0-0-0----------|
E|--3-------------------------------------|
    Ahh...........

Verse:
I'm standing on the shoreline, it's so fine out there;
Leaving with the wind blowing, but love takes care.

Chorus:
Know me, Know me,
Show me, Show me,
New things I'm knowing.

(Repeat fill)

Verse:
Wind blowing through my sails, it feels like I'm gone;
Leaving with the wind blowing through my sails.

Gmaj9
Ahh.
            
Submit corrections

↑ Back to top | Tablatures and chords for acoustic guitar and electric guitar, ukulele, drums are parodies/interpretations of the original songs. You may use it for private study, scholarship, research or language learning purposes only