» » »

Neil Diamond - Holly Holy Bass

Artists:  A B C D E F G H I J K L M N O P Q R S T U V W X Y Z # 

Holly Holy Bass

(ver. 1) Click to play this song!
Neil Diamond
 Rating:
4.3/5 (24 votes)

 Holly Holy lessons Tabs too difficult? Try these video lessons and learn fast
 
                   4/4

INTRO

       H  H     H  H     H  H     H   H
||---------|--------|--------|-----------|
||---------|--------|--------|-----------|
||---7-----|--7-----|--7-----|--7--------|
||------7--|-----7--|-----7--|------7----|

VERSE 1 - 2

 Q   Q  Q  Q    Q   Q  Q  Q    Q  Q  Q   Q
|--|-------------|--------------|--------------|
|O-|-------7--7--|--------------|--------------|
|O-|7------------|-7------5--7--|----5--7------|
|--|----7--------|-----7--------|-7---------7--|


  Q  Q  Q  Q    Q  Q  Q  Q    Q   Q  Q  Q    Q  Q  Q  Q
|-------------|-------------|--------------|------------|
|-7--7--------|-------------|--------7--7--|-------7--7-|
|-------7-----|-5--7-----5--|-7------------|-7----------|
|----------7--|-------7-----|-----7--------|----7-------|


  E  Q  E  E  E  E  E   H  Q  Q   Q  Q  Q  Q
|---------------------|---------|----------------||
|----7----------------|---------|---------------o||
|-7--------4--5--6--7-|----5--7-|-------5-------o||
|-------7-------------|-7-------|-7--7-----------||


CHORUS

      E  E  E  E  E  E  E  E     E  E  E  E  E  E  E  E
|-||--------------------------|--------------------------|
|-||o-------------------------|--------------------------|
|-||o-7--7--7--7--7--7--7--7--|--7--7--7--7--7--7--7--7--|
|-||--------------------------|--------------------------|


   E  E  E  E  E  E  E  E     E  E  E  E  E  E  E  E
|--------------------------|--------------------------||
|--------------------------|-------------------------o||
|--7--7--7--7--7--7--7--7--|--7--7--7--7--7--7--7--7-o||
|--------------------------|--------------------------||


      Q  E E Q  E E   Q  E E Q  E E   Q  E E Q  E E   Q  E E Q  E E
|-||----------------|---------------|---------------|---------------|
|-||o----7-7----7-7-|----7-7----7-7-|----7-7----7-7-|----7-7----7-7-|
|-||o-5------5------|-5------5------|-5------5------|-5------5------|
|-||----------------|---------------|---------------|---------------|


  Q  E E Q  E E   Q  E E Q  E E
|---------------|---------------|-----||
|----7-7----7-7-|----7-7----7-7-|----o||
|-5------5------|-5------5------|----o||
|---------------|---------------|-----||


  E E E E E E E E   E E E E E E E E   E E E E E E E E   E E E E E E E E
|-----------------|-----------------|-----------------|-----------------|
|-7-7-7-7-7-7-7-7-|-7-7-7-7-7-7-7-7-|-9-9-9-9-9-9-9-9-|-9-9-9-9-9-9-9-9-|
|-----------------|-----------------|-----------------|-----------------|
|-----------------|-----------------|-----------------|-----------------|


VERSE 3

  Q  Q  Q  Q    Q  Q  Q  Q    Q  Q  Q  Q    Q  Q  Q  Q
|-------------|-------------|-------------|-------------|
|-------7--7--|-------------|-------------|-7--7--------|
|-7-----------|-7-----5--7--|----5--7-----|-------7-----|
|----7--------|----7--------|-7--------7--|----------7--|


  Q  Q  Q  Q    Q  Q  Q  Q    Q  Q  Q  Q
|-------------|-------------|---------------|
|-------------|-------7--7--|-------7--7----|
|-5--7-----5--|-7-----------|-7-------------|
|-------7-----|----7--------|----7----------|


  E  Q  E  E E  E  E   H  Q  Q    Q  Q  Q  Q
|--------------------|----------|---------------|
|----7---------------|----------|---------------|
|-7--------4-5--6--7-|----5--7--|-------5-------|
|-------7------------|-7--------|-7--7----------|

CHORUS 

      E  E  E  E  E  E  E  E     E  E  E  E  E  E  E  E
|-||--------------------------|--------------------------|
|-||o-------------------------|--------------------------|
|-||o-7--7--7--7--7--7--7--7--|--7--7--7--7--7--7--7--7--|
|-||--------------------------|--------------------------|


   E  E  E  E  E  E  E  E     E  E  E  E  E  E  E  E
|--------------------------|--------------------------||
|--------------------------|-------------------------o||
|--7--7--7--7--7--7--7--7--|--7--7--7--7--7--7--7--7-o||
|--------------------------|--------------------------||


      Q  E E Q  E E   Q  E E Q  E E   Q  E E Q  E E   Q  E E Q  E E
|-||----------------|---------------|---------------|---------------|
|-||o----7-7----7-7-|----7-7----7-7-|----7-7----7-7-|----7-7----7-7-|
|-||o-5------5------|-5------5------|-5------5------|-5------5------|
|-||----------------|---------------|---------------|---------------|


  Q  E E Q  E E   Q  E E Q  E E
|---------------|---------------|-----||
|----7-7----7-7-|----7-7----7-7-|----o||
|-5------5------|-5------5------|----o||
|---------------|---------------|-----||


  E E E E E E E E   E E E E E E E E   E E E E E E E E   E E E E E E E E
|-----------------|-----------------|-----------------|-----------------|
|-7-7-7-7-7-7-7-7-|-7-7-7-7-7-7-7-7-|-9-9-9-9-9-9-9-9-|-9-9-9-9-9-9-9-9-|
|-----------------|-----------------|-----------------|-----------------|
|-----------------|-----------------|-----------------|-----------------|

OUTTRO

  Q  Q  Q  Q    Q  Q  Q  Q    Q  Q  Q  Q    Q  Q  Q  Q
|-------------|-------------|-------------|-------------|
|-------7--7--|-------------|-------------|-7--7--------|
|-7-----------|-7-----5--7--|----5--7-----|-------7-----|
|----7--------|----7--------|-7--------7--|----------7--|


  Q  Q  Q  Q    Q  Q  Q  Q    Q  Q  Q  Q
|-------------|-------------|---------------|
|-------------|-------------|---------------|
|-5--7-----5--|-7-----5--7--|-7-----5--7----|
|-------7-----|----7--------|----7----------|


      Q  Q  Q  Q    Q  Q  Q  Q    Q  Q  Q  Q
|-||--------------|-------------|--------------||----*|
|-||o-------7--7--|-------------|-------------o||----*|
|-||o-7-----------|-7-----5--7--|----5--7-----o||----*|
|-||-----7--------|----7--------|-7--------7---||----*|            
Submit corrections


        Holly Holy lessons Hard to play? Try these video lessons and learn fast Holly Holy lessons
        
↑ Back to top | Tablatures and chords for acoustic guitar and electric guitar, ukulele, drums are parodies/interpretations of the original songs. You may use it for private study, scholarship, research or language learning purposes only