» » »

Neil Diamond - Forever In Blue Jeans Bass

Artists:  A B C D E F G H I J K L M N O P Q R S T U V W X Y Z # 

Forever In Blue Jeans Bass

(ver. 1) Click to play this song!
Neil Diamond
 Rating:
4/5 (4 votes)

 Forever In Blue Jeans lessons Tabs too difficult? Try these video lessons and learn fast
 
                  ( Intro )  Acoustic Guitars
G|------------------------------------------------------------|---------|
D|------------------------------------------------------------|---------|
A|------------------------------------------------------------|-7-5-3-2-|
E|------------------------------------------------------------|---------|

  Money Talks
G|--------|--------|--------|--------|--------|--------|--------|---------|
D|--------|--------|--------|--------|--------|--------|--------|---------|
A|--------|--------|-5-5-5-5|-5-5-5-5|--------|-4-4-7-7|--------|-7-5-3-2-|
E|-5-5-5-5|-5-5-5-5|--------|--------|-5-5-7-7|--------|-5-5-5-5|---------|

  Honey's sweet
G|--------|--------|--------|--------|--------|--------|--------|---------|
D|--------|--------|--------|--------|--------|--------|--------|---------|
A|--------|--------|-5-5-5-5|-5-5-5-5|--------|-4-4-7-7|--------|---------|
E|-5-5-5-5|-5-5-5-5|--------|--------|-5-5-7-7|--------|-5-5-5-5|-5-5-5-5-|

  Maybe tonight
G|--------|--------|--------|--------|--------|--------|----------|--------|---------|
D|--------|--------|--------|--------|--------|--------|----------|--------|---------|
A|--------|--------|--------|--------|--------|--------|---5--5--5|-7-7-7-7|-7-7-7-7-|
E|-5-5-5-5|-5-5-5-5|-5-5-5-5|-5-5-5-5|-5-5-5-5|-5-5-3--|3---------|--------|---------|

  Money Talks
G|--------|--------|--------|--------|--------|--------|--------|---------|
D|--------|--------|--------|--------|--------|--------|--------|---------|
A|--------|--------|-5-5-5-5|-5-5-5-5|--------|-4-4-7-7|--------|-7-5-3-2-|
E|-5-5-5-5|-5-5-5-5|--------|--------|-5-5-7-7|--------|-5-5-5-5|---------|

  Honey's sweet
G|--------|--------|--------|--------|--------|--------|--------|---------|
D|--------|--------|--------|--------|--------|--------|--------|---------|
A|--------|--------|-5-5-5-5|-5-5-5-5|--------|-4-4-7-7|--------|---------|
E|-5-5-5-5|-5-5-5-5|--------|--------|-5-5-7-7|--------|-5-5-5-5|-5-5-5-5-|


  Maybe tonight
G|--------|--------|--------|--------|--------|--------|----------|--------|---------|
D|--------|--------|--------|--------|--------|--------|----------|--------|---------|
A|--------|--------|--------|--------|--------|--------|---5--5--5|-7-7-7-7|-7-7-7-7-|
E|-5-5-5-5|-5-5-5-5|-5-5-5-5|-5-5-5-5|-5-5-5-5|-5-5-3--|3---------|--------|---------|


 Money Talks
G|--------|--------|--------|--------|--------|--------|--------|---------|
D|--------|--------|--------|--------|--------|--------|--------|---------|
A|--------|--------|-5-5-5-5|-5-5-5-5|--------|-4-4-7-7|--------|---------|
E|-5-5-5-5|-5-5-5-5|--------|--------|-5-5-7-7|--------|-5-5-5-5|-5-5-5-5-|


             And if you'd pardon me
G|--------|--------|--------|--------|--------|--------|--------|---------|
D|--------|--------|--------|--------|--------|--------|--------|---------|
A|-5-5-5-5|-5-5-5-5|--------|-4-4-7-7|--------|--------|-5-5-5-5|-5-5-5-5-|
E|--------|--------|-5-5-7-7|--------|-5-5-5-5|-5-5-5-5|--------|---------|

  Here with me
  ( Outro ) ( fade )
G|--------|--------|--------|
D|--------|--------|--------|
A|--------|-4-4-7-7|--------|
E|-5-5-7-7|--------|-5-5-5-5|
            
Submit corrections


        Forever In Blue Jeans lessons Hard to play? Try these video lessons and learn fast Forever In Blue Jeans lessons
        
↑ Back to top | Tablatures and chords for acoustic guitar and electric guitar, ukulele, drums are parodies/interpretations of the original songs. You may use it for private study, scholarship, research or language learning purposes only