» » »

N-dubz - Playing With Fire Tabs

Artists:  A B C D E F G H I J K L M N O P Q R S T U V W X Y Z # 

Playing With Fire Tabs

(ver. 1) Click to play this song!
N-dubz
 Rating:
4/5 (4 votes)

 Playing With Fire lessons Tabs too difficult? Try these video lessons and learn fast
 
                Stardard tuning
/=slide up
>=bend up
<=Bend down
~=vibrato/ vibrate :)

This is the bit in the back ground
e-----------------------|
B-----------------------|
G---------5------7------|
D--8------5------7------| x2
A--8------3------5------|
E--6--------------------|

Solo for intro
e----------------------------|
B----------------------------|
G-------------19-------------|
D------17--19----19---15/17--|
A---15-----------------------|
E----------------------------|

e----------------------------|
B----------------------------|
G----------------------------|
D---17--19--17--15-----------|
A-------------------17-------|
E----------------------------|

e----------------------------|
B----------------------------|
G----------------------------|
D------15--------------------|
A---15----19--17--15---------|
E--------------------15/17---|
                          NANA ........... NAEEEEEEEEEEEYYYYYYYYYY

Verse
e-----------------------------|
B-----------------------------|
G---7--7--------5--5--5--5----|
D---7--7--8--8--5--5--5--5----| x6
A---5--5--8--8--3--3--3--3----|
E---------6--6----------------|

Chorus
e-----------------------------|-----------------------------|
B-----------------------------|-----------------------------|
G---------------5--5--5--5----|---7--7--7--7--7--7--7--7----|
D---8--8--8--8--5--5--5--5----|---7--7--7--7--7--7--7--7----| x4
A---8--8--8--8--3--3--3--3----|---5--5--5--5--5--5--5--5----|
E---6--6--6--6----------------|-----------------------------|

Repeat both verse and chorus for 2 times
Then Phasor's rap comes in and you play..

e------------------------------|-----------------------------|
B------------------------------|-----------------------------|
G------------------------------|-----------------------------|
D---12--------12--10-------10--|--12--------12--10----10-----|
A---10--------10--8--------8---|--10--------10--8-----8---10-|
E------------------------------|--------------------------8--|

Then solo
e---------------------|-------------------------------|
B---------------------|-------------------------------|
G---------------------|-------------------------------|
D---------7-9-7-5-----|-----17-17-19-17-17----17-15~--|
A--5~-------------5~--|-------------------------------|
E---------------------|-------------------------------|

e---------------------------|
B---------------------------|
G--------17-----17-19~------|
D--17-19------19------------|
A---------------------------|
E---------------------------|

Now for this bit you can choose to bend or use the 21st fret on the G string or 
17th on the B string

e------------------------------------|
B------------------------------------|
G---19--21--19--17-------------------|
D------------------19----19--17~-----|
A------------------------------------|
E------------------------------------|

OR

e---------------------------------|
B---------------------------------|
G----19><--17---------------------|
D---------------19----19--17~-----|
A---------------------------------|
E---------------------------------|

Then finish by playing the chorus 8x
And you're done
xD
            
Submit corrections


        Playing With Fire lessons Hard to play? Try these video lessons and learn fast Playing With Fire lessons
        
↑ Back to top | Tablatures and chords for acoustic guitar and electric guitar, ukulele, drums are parodies/interpretations of the original songs. You may use it for private study, scholarship, research or language learning purposes only