» » »

National Anthems - Welsh National Anthem Tabs

Artists:  A B C D E F G H I J K L M N O P Q R S T U V W X Y Z # 

Welsh National Anthem Tabs

(ver. 1) Click to play this song!
National Anthems
 Rating:
4/5 (4 votes)
                The Welsh National Anthem
Standard tuning E, A, D, G, B, e

e------------------------------------------------------------------------
B---------------------------------------------15---15---12---14---15
G-------11---------------14----12-----11-----------------------------
D-12----------14---12-------------------------------------------------
A------------------------------------------------------------------------
E-------------------------------------------------------------------------


e-------------------------------------------------------------------------
B---12---10------------------------------------------------------------
G--------------11-------------------------------------------------------
D-------------------12---12---11---12---14---14---14---14--------
A------------------------------------------------------------------------
E------------------------------------------------------------------------


e--------------------------------------------------------------------------
B--------------------------------------------------------------------------
G-----------------------------------------------16---18---19---19---16
D---16---17---19---19---16---17----19-------------------------------
A--------------------------------------------------------------------------
E--------------------------------------------------------------------------


e---------------------------------------------------------------------------
B--------------------------------------------------------------------------
G---18---19---16---14--------------------------------------------------
D---------------------------16---12---14---16---14---12--------------
A--------------------------------------------------------------------------
E--------------------------------------------------------------------------

You will ave to listen to the track for timing
            
Submit corrections

↑ Back to top | Tablatures and chords for acoustic guitar and electric guitar, ukulele, drums are parodies/interpretations of the original songs. You may use it for private study, scholarship, research or language learning purposes only