Home » N » Nate Ruess »

Nate Ruess - Take It Back Tabs

Artists:  A B C D E F G H I J K L M N O P Q R S T U V W X Y Z # 

Take It Back Tabs

(ver. 1) Click to play this song!
Nate Ruess
e|--------9h12p9------------------------------10h12p10-----------------------|
B|---9h10--------10/14-----------------------------------10--12--14---10-----|
G|------------------------9/11\9\7--9p6h9------------------------------------|
D|---------------------------------------------------------------------------|
A|---------------------------------------------------------------------------|
E|---------------------------------------------------------------------------|

e|----------------------------------7--9-----12p0---14----------12-----------|
B|------10--14--12-----10--9--7-------------------------10--12------10---12--|
G|------------------7--------------------------------------------------------|
D|---7-----------------------------------------------------------------------|
A|---------------------------------------------------------------------------|
E|---------------------------------------------------------------------------|


e|---------------------------------------------------------------------------|
B|----7h9p7-----------7p9h7--------------------------------------------------|
G|----------9--6/14---------6--9----6TR6-9--------9p7-------------2----------|
D|--------------------------------------------4/7------4-4\2--2h4-----0------|
A|---------------------------------------------------------------------------|
E|---------------------------------------------------------------------------|

e|--------------------------------------------12b14--------------------------|
B|--10h12--10h12p10p0---12h14-----12h14p12p0---------------------------------|
G|---------------------------------------------------------------------------|
D|---------------------------------------------------------------------------|
A|---------------------------------------------------------------------------|
E|---------------------------------------------------------------------------|            
Submit corrections

↑ Back to top | Tablatures and chords for acoustic guitar and electric guitar, ukulele, drums are parodies/interpretations of the original songs. You may use it for private study, scholarship, research or language learning purposes only