Home » N » Natalie Grant »

Natalie Grant - Clean Tabs

Artists:  A B C D E F G H I J K L M N O P Q R S T U V W X Y Z # 

Clean Tabs

(ver. 1) Click to play this song!
Natalie Grant
Capo 2

  1x [Intro[ 3x [Verse 1]
e|--------------|-----------|--0----------|--0----------|
B|--0-----------|--0--------|--0----------|--0----------|
G|--4-----------|--2--------|--1----------|--1----------|
D|--2-------2---|--2----2---|--2------2---|--1------2---|
A|--2----*0-----|--0----0---|--2----0-----|--2----0-----|
E|--------------|-*0--------|--0----------|--0----------|

e|--------0---0---|-------------|------------------|You're Restoring 
B|--------0---0---|------0-0----|--0----------0----|me, Piece by piece 
G|--------1-2-2---|-------------|--1----------1----|
D|----2-2-2---2---|----1--------|--2----2-----1----|
A|----------------|--2----------|--2--------2-2----|
E|--2-------------|-------------|--0--0-------0----|

[Chorus]

e|--------0----|--------0----|--------0----|-------------|
B|----------0--|------0-0-0--|--------0----|------4-0----|
G|------1------|-------------|------1------|----1---1----|
D|----2--------|----1--------|----2--------|-------------|
A|--0----------|--2----------|-------------|--4-------4--|
E|-------------|-------------|--0-------0--|-------------|

e|--------0----|--------0----|--------0----|--------0----|
B|--------0----|------0-0----|------0-0----|------0-0----|
G|------1------|-------------|----1--------|-------------|
D|----2--------|----1--------|-------------|----1--------|
A|--0----------|--2----------|--4----------|-------------|
E|-------------|-------------|-------------|--4----------|

e|--------0--*0|--------0--*0|--------0--*0|--------0----|
B|--------0--*0|------0-0--*0|--------0--*0|------4----0-|
G|------1------|-------------|------1-1----|----1--------|
D|----2--------|----1--------|----2---2----|-------------|
A|--0----------|--2----------|--------2----|-------------|
E|-------------|-------------|--0-----0----|--4----------|

e|--------0----|-------------| I am Clean..(Intro)
B|-----------0-|------0-0----|
G|------1------|-------------|
D|----2--------|----1--------|
A|--0----------|--2----------|
E|-------------|-------------|

 1x (Intro) 3x (Verse 2) 
e|--------------|-----------|--0----------|--0----------|                    |--2----------|
B|--0-----------|--0--------|--0----------|--0----------|                    |--5----------|
G|--4-----------|--2--------|--1----------|--1----------|                    |--4-----4----|
D|--2-------2---|--2----2---|--2------2---|--1------2---| A/C#m A E ---->  B |--4-----4----|
A|--2----*0-----|--0----0---|--2----0-----|--2----0-----|Destiny oh oh oh..B |--2---2------|
E|--------------|-*0--------|--0----------|--0----------|                    |--2----------|

e|--0----0---0---|--------0----|------------------|You're Restoring 
B|--0----0---0---|------0-0----|--0----------0----|me, Piece by piece 
G|--2----1-2-2---|-------------|--1----------1----|
D|--2----2---2---|----1--------|--2----2-----1----|
A|--0------------|--2----------|--2--------2-2----|
E|--0--0---------|-------------|--0--0-------0----|


[Chorus]

e|--------0--*0|--------0--*0|--------0--*0|--------0----|
B|--------0--*0|------0-0--*0|--------0--*4|------4-0--*4|
G|------1------|-------------|------1------|----1---1----|
D|----2--------|----1--------|----2--------|-------------|
A|--0----------|--2----------|-------------|--4----------|
E|-------------|-------------|--0----------|-------------|

e|--------0----|--------0----|--------0--*0|--------0--*0|
B|--------0----|------0-0----|------0-0--*0|------0-0--*0|
G|------1------|-------------|----1--------|-------------|
D|----2--------|----1--------|-------------|----1--------|
A|--0----------|--2----------|--4----------|-------------|
E|-------------|-------------|-------------|--4----------|

e|--------0--*0|--------0--*0|--------0--*0|--------0----|
B|--------0--*0|------0-0--*0|--------0--*4|------4-0--*4|
G|------1------|-------------|------1------|----1---1----|
D|----2--------|----1--------|----2--------|-------------|
A|--0----------|--2----------|-------------|-------------|
E|-------------|-------------|--0----------|--4----------|

e|--------0--*0|--------0--*0| I am Clean..(Intro) 1x
B|--------0--*0|------0-0--*0|
G|------1------|-------------|
D|----2--------|----1--------|
A|--0----------|--2----------|
E|-------------|-------------|


[Bridge]

e|--------0--*0|--------0--*0|--------0--*0|--------0----|
B|--------0--*0|------0-0--*0|--------0--*4|------4-0----|
G|------1------|-------------|------1------|----1--------|
D|----2--------|----1--------|----2--------|-------------|
A|--0----------|--2----------|-------------|--4----------|
E|-------------|-------------|--0----------|-------------|

e|--------0--*0|--------0--*0|--------0--*0|--------0--*0|
B|--------0--*0|------0-0--*0|------0-0--*0|------0-0--*0|
G|------1------|-------------|----1--------|-------------|
D|----2--------|----1--------|-------------|----1--------|
A|--0----------|--2----------|--4----------|-------------|
E|-------------|-------------|-------------|--4----------|

e|--------0--*0|--------0--*0|--0-----0---|--0--*-*--0--*-*-|
B|--------0--*0|------0-0--*0|--0-----0---|--0--*-*--0--*-*-|
G|------1------|-------------|--1-----1---|--1--*-*--1--*-*-|
D|----2--------|----1--------|--2-----2---|--1--*-*--1--*-*-|
A|--0----------|--2----------|--2-----2---|--2--*-*--2--*-*-|
E|-------------|-------------|--0--0--0---|--0--*-*--0--*-*-|

e|---------0--*-*-|--------0--*0|
B|---------0--*-*-|------0-0--*0| E   E   E   E   E E E E G#m G#m G#m G#m
G|------1--2--*-*-|--------1----| |   |   |   |   | A | A |   |   |   |
D|----2----2--*-*-|----1---1----| V   V   V   V   V | V | V   V   V   V
A|--0------0--*-*-|--2----------|
E|---------0--*-*-|-------------|

   1xA2  1xB                E   G#m  G#m-x
e|  |0|--|0|--  |          |0|--|0|--| |--    
B|  |0|--|0|--  |          |0|--|0|--|0|--   
G|  |1|--|4|--  |          |1|--|1|--|1|--   
D|  |2|--|4|--  |          |2|--|1|--|x|--   
A|  |0|--|2|--  |          |2|--|2|--|4|--  
E|  |0|--|2|--  V          |0|--|0|--|0|--  
                         A B E G#m G#m-x         A-A2 B E G#m G#m-x (Repeat) (Intro) (Last Bit)
|--0-0-0-0---------x----------------x---|                                         |--0------|--0------|0|
|--0-0-0-0---------0----------------0---|                                         |--0------|--0------|0|
|--1-1-1-1---x-x---1----------------1---|                                         |--1------|--1------|1|
|--2-4-x-x---x-x---1----------------x---|                                         |--2---2--|--1---2--|2|
|--2-2-2-2---x-x---2----------------4---|                                         |--2-2----|--2-2----|2|
|------------x-x---0----------------0---|                                         |--0------|--0------|0|
            
Submit corrections

↑ Back to top | Tablatures and chords for acoustic guitar and electric guitar, ukulele, drums are parodies/interpretations of the original songs. You may use it for private study, scholarship, research or language learning purposes only