Home » N » Nashville Pussy »

Nashville Pussy - High As Hell Tabs

Artists:  A B C D E F G H I J K L M N O P Q R S T U V W X Y Z # 

High As Hell Tabs

(ver. 1) Click to play this song!
Nashville Pussy
[Intro]

e|----------------------------------------|
B|----------------------------------------|
G|-----2--2----2~--2----5~--5-----------5-|
D|-----2--2---------5h7------7-5h7~-----5-|
A|-7\--0--0-0h3-----------------------0-3-|
E|----------------------------------------|

e|-----------------------------------|
B|-----------------------------------|
G|-2--2----2~--2---5~--5-----------5-| x2
D|-2--2---------5h7-----7-5h7~-----5-|
A|-0--0-0h3----------------------0-3-|
E|-----------------------------------|

e|-----------------------------------|
B|----------------(5)----------------|
G|-2--2----2~--2---5~--5-------------|
D|-2--2---------5h7-----7-5h7~-------| x4
A|-0--0-0h3----------------------0-7\|
E|-----------------------------------|

e|-----------------------------------|
B|-----------------------------------|
G|-2--2----2~--2---5~--5-----------5-|
D|-2--2---------5h7-----7-5h7~-----5-|
A|-0--0-0h3----------------------0-3-|
E|-----------------------------------|


[Verse]

     PM PM        PM PM     PM     PM         PM PM
e|------------------------------------------------------|
B|------------------------------------------------------|
G|-2-2--2----5--2-2--2----5-2----5-2----5-2-2-2--2----5-| x2
D|-2-2--2----5--2-2--2----5-2----5-2----5-2-2-2--2----5-|
B|-0-0--0--0-3--0-0--0--0-3-0--0-3-0--0-3-0-0-2--0--0-3-|
E|------------------------------------------------------|


[Chorus]

e|-----------------------------------|
B|-----------------------------------|
G|-2--2----2~--2---5~--5-----------5-|
D|-2--2---------5h7-----7-5h7~-----5-| x4
A|-0--0-0h3----------------------0-3-|
E|-----------------------------------|


[Verse]


     PM PM        PM PM     PM     PM         PM PM
e|------------------------------------------------------|
B|------------------------------------------------------|
G|-2-2--2----5--2-2--2----5-2----5-2----5-2-2-2--2--2-5-|
D|-2-2--2----5--2-2--2----5-2----5-2----5-2-2-2--2--2-5-|  x2
B|-0-0--0--0-3--0-0--0--0-3-0--0-3-0--0-3-0-0-2--0--0-3-|
E|------------------------------------------------------|


[Chorus]

e|------------------------------------|
B|------------------------------------|
G|-2--2----2~--2---5~--5------------5-|
D|-2--2---------5h7-----7-5h7~------5-|
A|-0--0-0h3-----------------------0-3-|
E|------------------------------------|
                                            x3                      
                                                                    
e|-----------------------------------------------------------------|
B|------------------5-55-55-55-55-55-55-55-55-55-55-55-55-55-55-55-|
G|-2--2----2~--2----5-55-55-55-55-55-55-55-55-55-55-55-55-55-55-55-|
D|-2--2---------5h7------------------------------------------------|
A|-0--0-0h3--------------------------------------------------------|
E|-----------------------------------------------------------------|


[Bridge]

e|--------------------------------------------------------------------------------|
B|------------------------------------------------------------8brb-8brb-8brb-8brb-|
G|-2--2-2-----5--------2--2-2-----5--------2--2-2-----5-----5-7brb-7brb-7brb-7brb-|
D|-2--2-2--5h7-7-5-7---2--2-2--5h7-7-5-7---2--2-2--5h7-7-5-7----------------------|
A|-0--0-0--------------0--0-0--------------0--0-0---------------------------------|
e|--------------------------------------------------------------------------------|


[Solo]

(Chords)
   
   D5 x15          A5 x15           D5 x15           C5 x4   E5 x3
e|--------------------------------------------------------------------|
B|--------------------------------------------------------------------|
G|-7---------------2----------------7----------------5-------9------5-|
D|-7---------------2----------------7----------------5-------9------5-|
A|-5---------------0----------------5----------------3-------7----0-3-|
E|--------------------------------------------------------------------|


[Instrumental]

e|----------------------------------------|
B|----------------------------------------|
G|-----2--2----2~--2----5~--5-----------5-|
D|-----2--2---------5h7------7-5h7~-----5-|
A|-7\--0--0-0h3-----------------------0-3-|
E|----------------------------------------|

e|-----------------------------------|
B|-----------------------------------|
G|-2--2----2~--2---5~--5-----------5-| x2
D|-2--2---------5h7-----7-5h7~-----5-|
A|-0--0-0h3----------------------0-3-|
E|-----------------------------------|

e|-----------------------------------|
B|----------------(5)----------------|
G|-2--2----2~--2---5~--5-------------|
D|-2--2---------5h7-----7-5h7~-------| x4
A|-0--0-0h3----------------------0-7\|
E|-----------------------------------|

e|-----------------------------------|
B|-----------------------------------|
G|-2--2----2~--2---5~--5-----------5-|
D|-2--2---------5h7-----7-5h7~-----5-|
A|-0--0-0h3----------------------0-3-|
E|-----------------------------------|


[Verse]

     PM PM        PM PM     PM     PM         PM PM
e|------------------------------------------------------|
B|------------------------------------------------------|
G|-2-2--2----5--2-2--2----5-2----5-2----5-2-2-2--2----5-| x2
D|-2-2--2----5--2-2--2----5-2----5-2----5-2-2-2--2----5-|
B|-0-0--0--0-3--0-0--0--0-3-0--0-3-0--0-3-0-0-2--0--0-3-|
E|------------------------------------------------------|


[Final Chorus]

e|-----------------------------------|
B|-----------------------------------|
G|-2--2----2~--2---5~--5-----------5-|
D|-2--2---------5h7-----7-5h7~-----5-|
A|-0--0-0h3----------------------0-3-|
E|-----------------------------------|

                       |x15|
e|----------------------------------|
B|-----------------5--5-5-----------|
G|-2--2----2~--2---5--5-5------5-2\-|
D|-2--2---------5h7------------5-2\-|
A|-0--0-0h3------------------0-3-0--|
E|----------------------------------|



e|-----------------------------------|
B|-----------------------------------|
G|-2--2----2~--2---5~--5-----------5-|
D|-2--2---------5h7-----7-5h7~-----5-|
A|-0--0-0h3----------------------0-3-|
E|-----------------------------------|

                       |x15|
e|----------------------------------|
B|-----------------5--5-5-----------|
G|-2--2----2~--2---5--5-5------5-2\-|
D|-2--2---------5h7------------5-2\-|
A|-0--0-0h3------------------0-3-0--|
E|----------------------------------|



e|-----------------------------------|
B|-----------------------------------|
G|-2--2----2~--2---5~--5-----------5-|
D|-2--2---------5h7-----7-5h7~-----5-|
A|-0--0-0h3----------------------0-3-|
E|-----------------------------------|

                       |x15|
e|----------------------------------|
B|-----------------5--5-5-----------|
G|-2--2----2~--2---5--5-5------5-2\-|
D|-2--2---------5h7------------5-2\-|
A|-0--0-0h3------------------0-3-0--|
E|----------------------------------|
            
Submit corrections

↑ Back to top | Tablatures and chords for acoustic guitar and electric guitar, ukulele, drums are parodies/interpretations of the original songs. You may use it for private study, scholarship, research or language learning purposes only