Home » N » Nashville Pussy »

Nashville Pussy - Come On Come On Tabs

Artists:  A B C D E F G H I J K L M N O P Q R S T U V W X Y Z # 

Come On Come On Tabs

(ver. 1) Click to play this song!
Nashville Pussy
Guitar 1 (Ruyter):

e|------------------------------------------------------------|
B|------------------------------------------------------------|
G|-6-b1/2br-4-6-4---------------------------------------------|
D|------------------6-b1/2br-4-6-4----------------------------|
A|-----------------------------------5b~----------5b~---------|
E|--------------------------------------7-7-5-7--X---7-7-5-7--|


Guitar 2 (Blaine) : Let ring all chords

   A5               E5               B5
e|------------------------------------------------------------|
B|------------------------------------------------------------|
G|-2---------------------------------4------------------------|
D|-2----------------2----------------4------------------------|
A|-0----------------2----------------2------------------------|
E|------------------0-----------------------------------------|


Guitar 1:
                                                  Let ring
e|------------------------------------------------------------|
B|--------------------------------------------------5---4-----|
G|-6-b1/2br-4-6-4--------------------------------2/4---4------|
D|------------------6-b1/2br-4-6-4----------------------------|
A|-----------------------------------5b~----------------------|
E|--------------------------------------7-7-5-7---------------|


Guitar 2: Let ring all chords

   A5               E5               B5
e|------------------------------------------------------------|
B|------------------------------------------------------------|
G|-2---------------------------------4------------------------|
D|-2----------------2----------------4------------------------|
A|-0----------------2----------------2------------------------|
E|------------------0-----------------------------------------|
            
Submit corrections

↑ Back to top | Tablatures and chords for acoustic guitar and electric guitar, ukulele, drums are parodies/interpretations of the original songs. You may use it for private study, scholarship, research or language learning purposes only