Home » N » Narayan Gopal »

Narayan Gopal - Kehi Mitho Baat Gara Tabs

Artists:  A B C D E F G H I J K L M N O P Q R S T U V W X Y Z # 

Kehi Mitho Baat Gara Tabs

(ver. 1) Click to play this song!
Narayan Gopal
Intro Solo Chords:
G | B | A | E
Intro Solo

           G         B             A                   E  
E-----------------------------7-------9-12-9--------------|
B-----5-7-7/8--8-7-5-7--9---7---9--12--------12-9-7h8-7-5-|
G-4-6---------------------9-------------------------------|
D---------------------------------------------------------|
A---------------------------------------------------------|
E---------------------------------------------------------|



Solo 2(Play all with E chord):

E-----------|-------------|------------|-------------|
B-9-----9---|-9------9-12-|-9------9---|-------------|
G---9-11--9-|---9-11------|---9-11---9-|---11-9------|
D-----------|-------------|------------|-12-----12-9-|
A----------------------------------------------------|
E----------------------------------------------------|

E-----------|-------------|-9-12-9--------|------------|
B-9-----9---|-9------9-12-|--------12-9---|-9------9---|
G---9-11--9-|---9-11------|---------------|---9-11---9-|
D-----------|-------------|---------------|------------|
A------------------------------------------------------|
E------------------------------------------------------|

Solo 3 Chords:
E | B | A | E
C#m | E | G | A
Am | E

Solo 3:
   E                    B
E--------------------------------|
B-12-12-12-10-9-10-9--------9---=|
G--------------------11-9-11--11-|
D--------------------------------|
A--------------------------------|
E--------------------------------|

   A                     E    
E----------------------------|
B-10-10-10-9---9---------9---|
G------------11--11-9-11---9-|
D----------------------------|
A----------------------------|
E----------------------------|

                    C#m                           E   
E--------------9-11-12--12-12-12-11-9-11-9----9-11---|
B------9-10-12-----------------------------12------12|
G-9-11-----------------------------------------------|
D----------------------------------------------------|
A----------------------------------------------------|
E----------------------------------------------------|
                        G                        A 
E--------------9-10-12--10-10-10-9---9---------9----|
B------9-10-12---------------------12--12-10-12--10-|
G-9-11----------------------------------------------|
D---------------------------------------------------|
A---------------------------------------------------|
E---------------------------------------------------|
                     Am                      E
E------------7-8-10--8-8-8-7---7---------------|
B-----7-8-10-----------------10--10-8-7/8-7--5-|
G-7-9------------------------------------------|
D----------------------------------------------|
A----------------------------------------------|
E----------------------------------------------|



E                C#m          E  
kehi meetho baat gara, raat tyasai dhalkidai cha x 2
         A         E     B        E
bhare pheri yekantama runu ta chadai cha

E                C#m          E  
kehi meetho baat gara, raat tyasai dhalkidai cha

Play Solo 2...

E            A      B         A         
ramailo kura gara, sapana ko kura gara x 2
E              A         C#m         E 
sang sangai bitayeko samjana ko kura gara
A                E
samjhana ko kura gara

E                 C#m          E 
dukha choda dukhalai ta jindagani chadai cha
        A         E      B         E
bhare pheri yekantama runu ta chadai cha
E                C#m          E  
kehi meetho baat gara, raat tyasai dhalkidai cha

Play Solo 3(Including female vocals)
Play Solo 1 (Intro Solo)


E                A        B           E   
aau nachau andharoma junkiri nache jastai x 2
E                A       C#m           E   
batasa ma udau aaja simala ko bhuwa jastai
A               E
simalako bhuwa jastai
E                 C#m          E 
dui kadam saath hidau chuttinu ta chadai cha
         A        E      B          E
bhare pheri yekantama runu ta chadai cha

E                C#m          E  
kehi meetho baat gara, raat tyasai dhalkidai cha

End with Solo 2            
Submit corrections

↑ Back to top | Tablatures and chords for acoustic guitar and electric guitar, ukulele, drums are parodies/interpretations of the original songs. You may use it for private study, scholarship, research or language learning purposes only