Home » N » Nancy Sinatra »

Nancy Sinatra - Bang Bang My Baby Shot Me Down Chords

Artists:  A B C D E F G H I J K L M N O P Q R S T U V W X Y Z # 

Bang Bang My Baby Shot Me Down Chords

(ver. 1) Click to play this song!
Nancy Sinatra
[Intro]
G|-5-----5-3---|-6-----6-5---|-----0-6-5--3-1-0---|
D|---3-6-----6-|---5-8-----8-|---2--------------3-|
A|-------------|-------------|-3------------------|
E|-------------|-------------|--------------------|
 
[Verse 1]
G|----------|--------------|-------------|
D|-3---5----|-----3------3-|-3---5-------|
A|---6----3-|--------------|---6---6\3-3-|
E|----------|-8\1---8\1----|-------------|
 
G|-5-----5-3---|-6-----6-5---|-----0-6-5--3-1-0---|
D|---3-6-----6-|---5-8-----8-|---2--------------3-|
A|-------------|-------------|-3------------------|
E|-------------|-------------|--------------------|
 
[Verse 2]
G|---1---1---1-|----------|--------------|-------------|
D|-3---2---0---|----------|-----3------3-|-3---5-----3-|
A|-------------|-6--5-4-3-|--------------|---6---6\3---|
E|-------------|----------|-8\1----8\1---|-------------|
 
[Interlude]
G|-5-----5-3---|-6-----6-5---|-----0-6-5--3-1-0-|
D|---3-6-----6-|---5-8-----8-|---2--------------|
A|-------------|-------------|-3----------------|
E|-------------|-------------|------------------|
 
[Chorus]
G|--------|---------------|--------------|-----------|
D|-3-3--1-|-------1---1-3-|-------1------|-----------|
A|--------|-4-4-4---4-----|-4-3--4---4-3-|-3-1-------|
E|--------|---------------|--------------|-----4-3-1-|
 
[Verse 3]
G|--------------------------------|-----------|
D|-2--1--0------------------------|-3---5-----|
A|----------6--5-4-3------3-----3-|---6-----3-|
E|--------------------8\1---8\1---|-----------|
 
[Outro]
G|-5-----5-3---|-6-----6-5---|-----0-6-5--3-1-0---|
D|---3-6-----6-|---5-8-----8-|---2--------------3-|
A|-------------|-------------|-3------------------|
E|-------------|-------------|--------------------|
            
Submit corrections

↑ Back to top | Tablatures and chords for acoustic guitar and electric guitar, ukulele, drums are parodies/interpretations of the original songs. You may use it for private study, scholarship, research or language learning purposes only