» » »

Naif - Benci Untuk Mencinta Tabs

Artists:  A B C D E F G H I J K L M N O P Q R S T U V W X Y Z # 

Benci Untuk Mencinta Tabs

(ver. 1) Click to play this song!
Naif
 Rating:
3.3/5 (29 votes)

 Benci Untuk Mencinta  lessons Tabs too difficult? Try these video lessons and learn fast
 
                Tuning:Standard

e|-5-----5-----5-7-8-8h10-7---------------------------------------9---12/14---14-13-12-9-10----------------|
B|---7-----7----------------10-7h8-7-8-8h10-7-----7-8-10/12-10-12---10----------------------12-------------|
G|-----7-----6--------------------------------8-9---------------------------------------------11-----------|
D|---------------------------------------------------------------------------------------------------------|
A|---------------------------------------------------------------------------------------------------------|
E|---------------------------------------------------------------------------------------------------------|

e|-8------8-7h8------------------------9---12---17---------------------------------------------------------|
B|---10---------10-8---8/10---10-9-8-----------------------------------------------------------------------|
G|------9------------9---------------9---12---14-----------------------------------------------------------|
D|---------------------------------------------------------------------------------------------------------|
A|---------------------------------------------------------------------------------------------------------|
E|---------------------------------------------------------------------------------------------------------|            
Submit corrections


        Benci Untuk Mencinta  lessons Hard to play? Try these video lessons and learn fast Benci Untuk Mencinta  lessons
        
↑ Back to top | Tablatures and chords for acoustic guitar and electric guitar, ukulele, drums are parodies/interpretations of the original songs. You may use it for private study, scholarship, research or language learning purposes only