Home » M » Myles Alannah »

Myles Alannah - Black Velvet Tabs

Artists:  A B C D E F G H I J K L M N O P Q R S T U V W X Y Z # 

Black Velvet Tabs

(ver. 1) Click to play this song!
Myles Alannah
BLACK VELVET by allanah myles



ARTHUR ALMERADER
koblenz, germany




pm...  palm muted
  upslide
<  downslide
b  bend
fb  FULL bend (a whole step bended)


		           some beats later
e--------------------------------------------------------------
h-------4---4<2----------------------4-4---------------------------
g---->6---6-----------------------6----------------------------
d---------------->6-4-----------------------------------------
a---------------------------------------------------------------
e---------------------------------------------------------------


There are some more fill ins in the song. You have to improvise with this lick above, 
to figure them out. There are too many of em to note em all.




02:40, there is a cool solo:


       b		              b		play this 2 times 
e--------------------------------------------------------
h------9---7--------------------------7------------------
g------------8-------8--6--8---x-x-x---------------------
d--------------------------------------------------------
a--------------------------------------------------------
e--------------------------------------------------------



			  PM......	      fb      fb     fb	 	b			fb
e----------------------------------------------------------------------------------------------------
h-------------------------------------------------16-----16--------------------------------16--20----
g-----8-6----6---------------3----------------18-----18------18--------18-16-18-----16--18-----------
d--------->8---8<6---------4---4------------------------------------------------16-------------------
a--------------------------------6-------------------------------------------------------------------
e----------------------------------------------------------------------------------------------------



THE SOLO GOES ON, BUT I HAVE ENOUGH FOR TODAY!!
have fun
            
Submit corrections

↑ Back to top | Tablatures and chords for acoustic guitar and electric guitar, ukulele, drums are parodies/interpretations of the original songs. You may use it for private study, scholarship, research or language learning purposes only